Guitar Medley: A Link to the Past – Part 1/3

A Link to the Past - Part 1/3
Original music by Koji Kondo
Tab and guitar arrangement by Oddnejm

Time signature: 4/4
E|-----------1-------------------|-------------1------------------|
B|--------1----------------------|--------1-------1-----1---------|
G|-----1-------------------------|-----1-----1-------1------------|
D|--3----------------------------|--3-----------------------------|
A|-------------------------------|--------------------------------|
E|-------------------------------|--------------------------------|
 
|------------1-------------------|-------------1------------------|
|--------2-----------------------|--------2-------2-----2---------|
|-----1--------------------------|-----1-----1-------1------------|
|--3-----------------------------|--3-----------------------------|
|--------------------------------|--------------------------------|
|--------------------------------|--------------------------------|
 
|-----------1--------------------|-------------1------------------|
|--------3-----------------------|--------3-------3-----3---------|
|-----1--------------------------|-----1-----1-------1------------|
|--3-----------------------------|--3-----------------------------|
|--------------------------------|--------------------------------|
|--------------------------------|--------------------------------|
 
|-----------1--------------------|-----------1--------------------|
|--------2-----------------------|--------2-----------------------|
|-----1--------------------------|-----1--------------------------|
|--3-----------------------------|--3-----------------------------|
|--------------------------------|--------------------------------|
|--------------------------------|--------------------------------|
 
|--------------1-----------------|-------------1------------------|
|--------1--------1-----1--------|--------2-------2-----2---------|
|-----1-----1--------1-----------|-----1-----1-------1------------|
|--3-----------------------------|--3-----------------------------|
|--------------------------------|--------------------------------|
|--------------------------------|--------------------------------|
 
|--------------1-----------------|-------------1------------------|
|--------3--------3-----3--------|--------4-------4-----4---------|
|-----1-----1--------1-----------|-----1-----1-------1------------|
|--3-----------------------------|--3-----------------------------|
|--------------------------------|--------------------------------|
|--------------------------------|--------------------------------|
 
|--------------8-----------------|----------------9---------------|
|---------9--------9-----9-------|---------9---------9-----9------|
|-----10-----10-------10---------|-----10-----10--------10--------|
|--10----------------------------|--10----------------------------|
|--------------------------------|--------------------------------|
|--------------------------------|--------------------------------|
 
|---------------10---------------|----------------9---------------|
|---------9--------9-----9-------|---------9---------9-----9------|
|-----10-----10-------10---------|-----10-----10--------10--------|
|--10----------------------------|--10----------------------------|
|--------------------------------|--------------------------------|
|--------------------------------|--------------------------------|
 
|--------------1-----------------|-------------1------------------|
|--------1--------1-----1--------|--------2-------2-----2---------|
|-----1-----1--------1-----------|-----1-----1-------1------------|
|--3-----------------------------|--3-----------------------------|
|--------------------------------|--------------------------------|
|--------------------------------|--------------------------------|
 
                                                           let it ring
|--------------1-----------------|-------------1---------------6--|
|--------3--------3-----3--------|--------4-------4-----4-----4---|
|-----1-----1--------1-----------|-----1-----1-------1-------3----|
|--3-----------------------------|--3-----------------------3-----|
|--------------------------------|--------------------------------|
|--------------------------------|--------------------------------|
 
|--3-3-3-----------3-3-3----1----|--3------------4------------6---|
|--3-3-3-----------3-3-3----1----|--3------------4------------6---|
|--4-4-4-----------4-4-4----2----|--4------------5------------7---|
|--5-5-5-----------5-5-5----3----|--5------------6------------8---|
|--5-5-5-----------5-5-5----3----|--5------------6------------8---|
|--3-3-3-----------3-3-3----1----|--3------------4------------6---|

|--3-----------------------------|--------------------------------|
|--3-----------------------------|--------------------------------|
|--4-----------------------------|--------------------------------|
|--5-----------------------------|--------------------------------|
|--5-----------------------------|--------------------------------|
|--3-----------------------------|--------------------------------|

|-----3---------------------2-/--|--3----3----------4--4----1--1--|
|-----3------------3--------2-/--|--3----3----------4--4----1--1--|
|-----0---x--------2-----x--0----|--0----0----x-----0--0----0--0--|
|---------x--------3-----x-------|------------x-------------------|
|---------x----0---------x-------|------------x-------------------|
|--3-----------------------------|--------------------------------|
 
|-----3---------------------2-/--|--3----3----------4--4----6-6---|
|-----3------------3--------2-/--|--3----3----------4--4----6-6---|
|-----0---x--------2-----x--0----|--0----0----x-----0--0----0-0---|
|---------x--------3-----x-------|------------x-------------------|
|---------x----0---------x-------|------------x-------------------|
|--3-----------------------------|--------------------------------|
 
|-----3---------------------2-/--|--3----3---------4-----6-----4--|
|-----3------------3--------2-/--|--3----3---------4-----6-----4--|
|-----0---x--------2-----x--0----|--0----0----x-------------------|
|---------x--------3-----x-------|------------x-------------------|
|---------x----0---------x-------|------------x-------------------|
|--3-----------------------------|-----------------4-----6-----4--|
 
|-----3---------------------2-/--|--3----3---------6---4--3h4-----|
|-----3------------3--------2-/--|--3----3---------------------6--|
|-----0---x--------2-----x--0----|--0----0----x-------------------|
|---------x--------3-----x-------|------------x-------------------|
|---------x----0---------x-------|------------x-------------------|
|--3-----------------------------|--------------------------------|

                                                    dampen
|-----3---------------------2-/--|--3----3----------4----1----4---|
|-----3------------3--------2-/--|--3----3----------4----1----4---|
|-----0---x--------2----x---0----|--0----0----x-----0----0----0---|
|---------x--------3----x--------|------------x-------------------|
|---------x-----0-------x--------|------------x-------------------|
|--3-----------------------------|--------------------------------|
 
                                                    let ring
|-----3---------------------2-/--|--3----3----------6----6--------|
|-----3------------3--------2-/--|--3----3----------6----6--------|
|-----0---x--------2----x---0----|--0----0----x-----0----0----x---|
|---------x--------3----x--------|------------x---------------x---|
|---------x-----0-------x--------|------------x---------------x---|
|--3-----------------------------|--------------------------------|
 
|-----8------------6--------8----|--8----------------11--11----9--|
|-----8------------6--------8----|--8----------------11--11----9--|
|-----0---x--------0----x---0----|--0---------x-------0---0----0--|
|---------x-------------x--------|------------x-------------------|
|---------x-------------x--------|------------x-------------------|
|--8------------6-----------8----|-----------------11--------9----|
 
|-----8------------6--------8----|--8-----------------9-------6---|
|-----8------------6--------8----|--8-----------------9-------6---|
|-----0---x--------0----x---0----|--0---------x-------0-------0---|
|---------x-------------x--------|------------x-------------------|
|---------x-------------x--------|------------x-------------------|
|--8------------6-----------8----|-----------------9-------6------|

|-----3---------------------2-/--|--3----3---------3--4--6--3--4--|
|-----3------------3--------2-/--|--3----3------------------------|
|-----0---x--------2-----x--0----|--0----0----x-------------------|
|---------x--------3-----x-------|------------x-------------------|
|---------x-----0--------x-------|------------x-------------------|
|--3-----------------------------|--------------------------------|
 
|-----3---------------------2-/--|--3----3-------3--6p4p3---------|
|-----3------------3--------2-/--|--3----3----------------6p4p3---|
|-----0---x--------2-----x--0----|--0----0----x-----------------5-|
|---------x--------3-----x-------|------------x-------------------|
|---------x-----0--------x-------|------------x-------------------|
|--3-----------------------------|--------------------------------|
 
                                    hard
|---------------------------3--3-|--3-------4---6------4-----3----|
|--6-------4--3--1----3--4--3--3-|--3-------4---6------4-----3----|
|--5------------------------4--4-|--4-------5---7------5-----4----|
|--6------------------------5--5-|--5-------6---8------6-----5----|
|---------------------------5--5-|--5-------6---8------6-----5----|
|--4------------------------3--3-|--3-------4---6------4-----3----|
 
                                    soft
|--------------------------------|--3-----------4--------------3--|
|--6-----------3h4p3-------------|--3-----------4--------------3--|
|--5-----------------5p3---------|--4-----------5--------------4--|
|--6---------------------5/6-----|--5-----------6--------------5--|
|--------------------------------|--5-----------6--------------5--|
|--6-----------------------------|--3-----------4--------------3--|

|--1------------------------3----|--6-----------4p3--1h3---4h6----|
|-------------4p3--1-h3--4-------|--4-----------------------------|
|--3---------------1-----3-------|--5----------------1-----5------|
|--------------------------------|--------------------------------|
|--1-----------------------------|--------------------------------|
|--------------------------------|--4-----------------------------|
 
|--8--------------------------8--|--10--------------10------------|
|--10-------11p10--8h10---11-----|---8-------------7--------------|
|--8-----------------------8-----|----------7-----7---------------|
|------------------8-------------|--------------------------------|
|--9-----------------------------|--------------------------------|
|--------------------------------|--------------------------------|
 
       attack!
|------6-------------------------|-----5------------5-------------|
|------3-------------------------|-----5-----------5--------------|
|------3-------------------------|-----0----------0---------------|
|--5-----------------------------|--------------------------------|
|-----------------------5--------|--4-----------------------------|
|---------------3---6------------|---------------5----------------|
 
|-----4--------------------------|-----3--------3-3-3-3---4---1---|
|-----4--------------------------|-----3--------3-3-3-3---4---1---|
|-----0--------------------------|-----0--------0-0-0-0---0---0---|
|--------------------------------|--------------------------------|
|--3----------0--1----------1----|--------------------------------|
|-----------------------2--------|--3-----------------------------|

|--6-------6---------------------|--5-------5--------5------------|
|--3-------3---------------------|--5-------5-------5-------------|
|------3-------------------------|------0----------0--------------|
|--5-----------------------------|--------------------------------|
|-----------------------5--------|--4-----------------------------|
|---------------3---6------------|---------------5----------------|
 
|--4-------4---------------------|--3----------3------------------|
|--4-------4---------------------|--3----------3--------------3---|
|------0------x------------------|--------0--------x--0h2h3h5-----|
|-------------x------------------|-----------------x--------------|
|--3-------------1----------1----|-----------------x--------------|
|-----------------------2--------|--3-----------------------------|
 
                                         go with the flow here ...
|--3----------3-3-3--------------|--------------------------------|
|--4----------4-4-4--------------|--3-----------3--3--3-----------|
|--5-----x----5-5-5--------------|--3-----x-----3--3--3----x------|
|--5-----x----5-5-5--------------|--3-----x-----3--3--3----x------|
|--3-----x----3-3-3--------------|--1-----x-----1--1--1----x------|
|--------------------------------|--------------------------------|
 
|--5----------5-5-5--------------|--6-----------6--6--6-----------|
|--3-----x----3-3-3--------------|--8-----------8--8--8-----------|
|--5-----x----5-5-5--------------|--7-----x-----7--7--7----x------|
|--4-----x----4-4-4--------------|--5-----x-----5--5--5----x------|
|--------------------------------|--------x----------------x------|
|--------------------------------|--------------------------------|

|--3----------3-3-3--------------|--------------------------------|
|--4----------4-4-4--------------|--3----------3-3-3--------------|
|--5----------5-5-5--------------|--3----------3-3-3--------------|
|--5-----x----5-5-5--------------|--3-----x----3-3-3--------------|
|--3-----x----3-3-3--------------|--1-----x----1-1-1--------------|
|--------------------------------|--------------------------------|
 
|--5----------5-5-5----5-5-5-----|-----6-------6------------------|
|--3----------3-3-3----3-3-3-----|-----8-------6------------------|
|--5----------5-5-5----5-5-5-----|-----7-------7-----------x------|
|--4-----x----4-4-4----4-4-4-----|--5----------------------x------|
|--------x-----------------------|----------8--------------x------|
|--------------------------------|--------------------------------|
 
|--6---6-------------------------|-----6-------6------------------|
|--8---8---8-8-8--8--8---9---6---|-----8-------6------------------|
|--7---7---7-7-7--7--7---8---5---|-----7-------7-----------x------|
|--5---5-------------------------|--5----------------------x------|
|--------------------------------|----------8--------------x------|
|--------------------------------|--------------------------------|
 
|--6---6-------------------------|--------------------------------|
|--8---8------8---8---8-----9----|--6-----------------------------|
|--7---7------7---7---7-----8----|--5-----------------------------|
|--5---5------5---5---5-----6----|--3-----------------------------|
|--------------------------------|--------------------------------|
|--------------------------------|--------------------------------|

Time signature: 3/4
|----------0---------------------|----------2---------------------|
|----------1---------------------|----------3---------------------|
|------0-------------------------|------2-------------------------|
|--------------------------------|--0-----------------------------|
|--3-----------------------------|--------------------------------|
|--------------------------------|--------------------------------|
 
|-----0--------------------------|-----2------2-------------------|
|----1-------1-------------------|----3-------3-------------------|
|---0--------0-------------------|---2----2------------------2----|
|--------2------------------2----|--0-----------------------------|
|--3-----------------------------|--------------------------------|
|--------------------------------|--------------------------------|
 
|--------------------------------|--------------------------------|
|-----0----------------3---------|--------------------------------|
|----4---------------------------|--2---------------------0---2-/-|
|---2-------------2----------2---|---------------2----------------|
|--3-----------------------------|--0-----------------------------|
|--------------------------------|--------------------------------|
 
|--------------------------------|--------------------------------|
|-------------------3------------|--------------------------------|
|--4-----------------------------|----------2---------------------|
|---------------2--------2-------|------2-------------------------|
|--3-----------------------------|--0-----------------------------|
|--------------------------------|--------------------------------|

|--------------------------------|--------------------------------|
|--------------------------------|----10-----10---------------8---|
|------------4-/------------7----|---7--------7-------------------|
|------2-------------------------|--9-----9-----------------------|
|--------------------------------|--------------------------------|
|--3-----------------------------|--------------------------------|

|--------------------------------|--------------------------------|
|------3-------3---------1---0---|----3---------------------------|
|-----0--------0-----------------|---2----------------------------|
|----0-----0---------------------|--0-----------------------------|
|--------------------------------|-0------------------------------|
|---3----------------------------|--------------------------------|
 
|--------------------------------|--------------------------------|
|-----0----------------3---------|--------------------------------|
|----4--------4------------------|--2--------2------------0---2-/-|
|---2------2------2----------2---|-------2------------------------|
|--3-----------------------------|--0-----------------------------|
|--------------------------------|--------------------------------|
 
|--------------------------------|--------------------------------|
|----------3--------3------------|--------------------------------|
|--4-----------------------------|---------2----------------------|
|------2--------2--------2-------|------2-------------------------|
|--3-----------------------------|--0-----------------------------|
|--------------------------------|--------------------------------|

|--------------------------------|--------------------------------|
|--------------------------------|--10-------10---------------8---|
|------------4---/---------7-----|-----------7--------------------|
|--------2-----------------------|------9-------------------------|
|--------------------------------|--10----------------------------|
|--3-----------------------------|--------------------------------|
 
|------10------10----------------|------10------------------------|
|-----8---------8-----------8----|-----7--------------------------|
|----7------7--------------------|----7---------------------------|
|---9----------------------------|---7----------------------------|
|--------------------------------|--------------------------------|
|--------------------------------|--------------------------------|
 
|-----10-----10----------8---7---|--8--p7-------------------------|
|----8--------8------------------|----------8---8-----------------|
|---7--------------7-------------|----------7---7-----------------|
|--------------------------------|----------9------9--------------|
|--10----------------------------|--10-----10---------------------|
|--------------------------------|--------------------------------|
 
|-----8-------8---------7----5---|--------------------------------|
|----5--------5------------------|--5----5-----5------------------|
|---5--------------5-------------|--5----5-----5------------------|
|--5-----------------------------|--7-------7------7--------------|
|--------------------------------|--7-----------------------------|
|--------------------------------|--------------------------------|
 
|-----10-----10----------8---7---|--8--p7-------------------------|
|----8--------8------------------|----------8---8-----------------|
|---7--------------7-------------|----------7---7-----------------|
|--------------------------------|----------9-------9-------------|
|--10----------------------------|--10-----10---------------------|
|--------------------------------|--------------------------------|
 
|-----------15-------------------|------------15------------------|
|-----------12-------------------|------------12------------------|
|------12---------12-------------|-------10---------10------------|
|--------------------------------|--------------------------------|
|--10----------------------------|--10----------------------------|
|--------------------------------|--------------------------------|
 
|-------3------------------------|-<15>---------------------------|
|------3-------------------------|--------------------------------|
|-----0--------------------------|--------------------------------|
|----0---------------------------|--------------------------------|
|---2----------------------------|--------------------------------|
|--3-----------------------------|--------------------------------|

More of my work