Guitar Medley: A Link to the Past – Part 2/3

A Link to the Past - Part 2/3
Original music by Koji Kondo
Tab and guitar arrangement by Oddnejm

Time signature: Free

|--------------------------------4--3-----------------------------|
|-----------4p3---------4p3------------6p4p3-----3----------------|
|--------5--------5-----------5---------------5-------------------|
|-----5--------------5--------------------------------------------|
|--3--------------------------------------------------------------|
|-----------------------------------------------------------------|

Time signature: 4/4

|--3-----------------------7h8---|--7-----------------------------|
|----------4---------------------|-----------8--------------------|
|------5-----------5-------------|-------7-----------7------------|
|--------------5-----------------|---------------9----------------|
|--3-------------------3---------|--10--------------------10------|
|--------------------------------|--------------------------------|

|--3-----------------------7h8---|--7-----------------------------|
|----------4---------------------|--------------------------------|
|------5-----------5-------------|------7---------7---------------|
|--------------5-----------------|--9--------10--------/-12-------|
|--3-------------------3---------|--------------------------------|
|--------------------------------|--------------------------------|

|--------------------------------|--------------------------------|
|-------------------------8------|--8-----------------------------|
|------------------8----------8--|-------------7------------------|
|--10-------10---------10--------|---------9-------9--9-----------|
|-------10------10---------------|--10-------------------10---10--|
|--8-----------------------------|--------------------------------|

|--------------------------------|----------------------------7---|
|-------------------------8------|--8-----------------8-----------|
|------------------8-------------|-------------7----------7-------|
|--10-------10---------10--------|---------9-------9--------------|
|-------10------10---------------|--10----------------------------|
|--8-----------------------------|--------------------------------|

|--8------------------------8----|-------------------------8--8---|
|-----------10-------------------|----------------10--10----------|
|--------8-----8--8--------------|----------8--8------------------|
|--10---------------10--10-------|------10------------------------|
|--------------------------------|--------------------------------|
|--------------------------------|--8-----------------------------|

|-------10-----------------------|--13---12---11-------7---6------|
|-------8------------------------|---------------------7---6------|
|----7---------7-----------------|--------------------------------|
|-9--------------------9-----8---|--------------------------------|
|--------------------------------|--------------------------------|
|--------------------------------|--13---12---11-------7---6------|

|-----------5----------6---------|-----------5-----------4--------|
|--------5-------------6---------|--------5--------------4--------|
|-----0-----------x----0---------|-----0------------x----0--------|
|-----------------x--------------|------------------x-------------|
|-----------------x--------------|------------------x-------------|
|--5-------------------6---------|--5--------------------4--------|

|-----------5----------6---------|--8-6-5-------------------------|
|--------5-------------6---------|--------------8---5h6p5-----5---|
|-----0-----------x----0---------|-------------------------7------|
|-----------------x--------------|--------------------------------|
|-----------------x--------------|--------------------------------|
|--5-------------------6---------|--------------------------------|

|-----------10----------11-------|-----------10-----------9-------|
|--------10-------------11-------|--------10--------------9-------|
|------0----------x------0-------|------0-----------x-----0-------|
|-----------------x--------------|------------------x-------------|
|-----------------x--------------|------------------x-------------|
|--10-------------------11-------|--10--------------------9-------|

|-----------10----------11-------|--------------------------------|
|--------10-------------11-------|--------------------------------|
|------0----------x------0-------|--10--9/7--5--------------------|
|-----------------x--------------|-----------------7h8p7p5h7------|
|-----------------x--------------|--------------------------------|
|--10-------------------11-------|--------------------------------|

|--5--------5----------6---------|--5--------5-----------4--------|
|--------5-------------6---------|--------5--------------4--------|
|-----0-----------x----0---------|-----0------------x----0--------|
|-----------------x--------------|------------------x-------------|
|-----------------x--------------|------------------x-------------|
|--5--------5----------6---------|--5--------5-----------4--------|

|--5--------5----------6---------|--------------------------------|
|--------5-------------6---------|--5h6p5-----8---6--5h6p5----5---|
|-----0-----------x----0---------|---------7---------------7------|
|-----------------x--------------|--------------------------------|
|-----------------x--------------|--------------------------------|
|--5--------5----------6---------|--------------------------------|

|--10-------10----------11-------|--10-------10-----------9-------|
|--------10-------------11-------|--------10--------------9-------|
|------0----------x------0-------|------0-----------x-----0-------|
|-----------------x--------------|------------------x-------------|
|-----------------x--------------|------------------x-------------|
|--10-------10----------11-------|--10-------10-----------9-------|

|--10-------10----------11-------|--/10-9-8-----------------------|
|--------10-------------11-------|----------11---10h11p10p8h10----|
|------0----------x------0-------|--------------------------------|
|-----------------x--------------|--------------------------------|
|-----------------x--------------|--------------------------------|
|--10-------10----------11-------|--------------------------------|

|--------------------------------|--------------------------------|
|-----------1---------3----------|---5--------5---------7---------|
|--------0-----------------------|---------0----------------------|
|-----2--------2-----------------|------5--------5----------------|
|--0--------0---------0----------|---0--------0---------0---------|
|--------------------------------|--------------------------------|

|--------------------------------|--------------------------------|
|--1--------1---------3----------|---5--------5---------7---------|
|--------0-----------------------|---------0----------------------|
|-----2--------2-----------------|------5--------5----------------|
|--0--------0---------0----------|---0--------0---------0---------|
|--------------------------------|--------------------------------|

|--0-0-0-------------------------|--0-0-0-------------------------|
|--1-1-1---------1------3--------|--5-5-5----------5-------7------|
|--0-0-0---------0------0--------|--0-0-0----------0-------0------|
|--2-2-2---------2------4--------|--5-5-5----------5-------7------|
|--0-0-0------0------0-----------|--0-0-0-------0------0----------|
|--------------------------------|--------------------------------|

                                                            paus
|--0-0-0-------------------------|--0-0-0-------------------------|
|--1-1-1---------1------3--------|--5-5-5----------5-------7------|
|--0-0-0---------0------0--------|--0-0-0----------0-------0------|
|--2-2-2---------2------4--------|--5-5-5----------5-------7------|
|--0-0-0------0------0-----------|--0-0-0-------0------0----------|
|--------------------------------|--------------------------------|

|--5-5-5------------------5------|-----2h3p2----2-----------------|
|--5-5-5------5-----------5------|----3------3------3-------------|
|--5-5-5------5-----------5------|---2-----------------2----------|
|--7-7-7------7------------------|--0---------------------0-------|
|--7-7-7-------------------------|--------------------------------|
|--5-5-5---5---------5--------5--|--------------------------------|

|--0-------------0---------------|--------------------------------|
|--2-----2-------2---------------|--3---1---0------1---0----------|
|--3--3----------3-------3-------|--0---0---0------0---0----------|
|--4---------4-------------------|--------------------------------|
|--------------------------------|--------------------------------|
|--------------------------------|--3---3---3--------------3------|

|-0---0-0-0---0-0-0------0-------|--0--0-0---0--------0-----0-----|
|-1---1-1-1---1-1-1------3-------|--5--5-5---5--------5-----7-----|
|-0---0-0-0---0-0-0------0-------|--0--0-0---0--------0-----0-----|
|-2---2-2-2---2-2-2------4-------|--5--5-5---5--------5-----7-----|
|-0---0-0-0---0-0-0------0-------|--0--0-0---0-----0--0-----0-----|
|--------------------------------|--------------------------------|

|--0--0-0---0--------0-----0-----|--0--0-0---0--------0-----0-----|
|--1--1-1---1--------1-----3-----|--5--5-5---5--------5-----7-----|
|--0--0-0---0--------0-----0-----|--0--0-0---0--------0-----0-----|
|--2--2-2---2--------2-----4-----|--5--5-5---5--------5-----7-----|
|--0--0-0---0-----0--0-----0-----|--0--0-0---0-----0--0-----0-----|
|--------------------------------|--------------------------------|

|--5-5--------------------5------|--2h3p2----2--------------------|
|--5-5--------5-----------5------|--3-------------3---------------|
|--5-5--------5-----------5------|--2------2----------2-----------|
|--7-7--------7------------------|--0---------------------0-------|
|--7-7---------------------------|--------------------------------|
|--5-5-----5---------5--------5--|--------------------------------|

|----------0---------------------|--------------------------------|
|--2----------2------------------|--1-------0---------------------|
|--3--3----------3---------------|--0-----------0-----------------|
|--4-----------------4-----------|------0-----------0-------------|
|--------------------------------|--------------------------------|
|--------------------------------|--3-----------------------------|

|--0--0-0---0-0-0----------0-----|--0--0-0---0-0-0----------0-----|
|--1--1-1---1-1-1----------3-----|--5--5-5---5-5-5----------7-----|
|--0--0-0---0-0-0----------0-----|--0--0-0---0-0-0----------0-----|
|--2--2-2---2-2-2----------4-----|--5--5-5---5-5-5----------7-----|
|--0--0-0---0-0-0----------0-----|--0--0-0---0-0-0----------0-----|
|--------------------------------|--------------------------------|

|--0--0-0---0-0-0----------0-----|--0--0-0---0-0-0----------0-----|
|--1--1-1---1-1-1----------3-----|--5--5-5---5-5-5----------7-----|
|--0--0-0---0-0-0----------0-----|--0--0-0---0-0-0----------0-----|
|--2--2-2---2-2-2----------4-----|--5--5-5---5-5-5----------7-----|
|--0--0-0---0-0-0----------0-----|--0--0-0---0-0-0----------0-----|
|--------------------------------|--------------------------------|

|--3-----------------3-----------|--2---------------2-------------|
|--3---------3-------3-----------|--3---x---3-------3-------------|
|-------x----0-------------------|--2---x-------2-------2---------|
|-------x--------2--------2------|--0---x---0---------------------|
|--3----x----3-------------------|--------------------------------|
|--------------------------------|--------------------------------|

|-0------------------0-----------|--------------------------------|
|-2---x----2---------2-----------|--3---1---0--------0------------|
|-3---x---------3----------3-----|--0---0---0--------0------------|
|-4---x----4---------------------|---------------0-------0--------|
|--------------------------------|--------------------------------|
|--------------------------------|--3-----------------------------|

|--3-----------------3-----------|--2h3------5-------5------------|
|--3---------3-------3-----------|--3--------3-------3------------|
|-------x----0-------------------|--2----x---2----2-------2-------|
|-------x--------2--------2------|--0----x---0--------------------|
|--3----x----3-------------------|-------x------------------------|
|--------------------------------|--------------------------------|

|-3------------------3-----------|--2-------2--------2------------|
|-5---x----5---------5-----------|--0---x---0--------0------------|
|-----x----3----3----------3-----|------x--------2--------2-------|
|-----x----3---------------------|------x-------------------------|
|-4--------4---------------------|--2-------2---------------------|
|--------------------------------|--------------------------------|

|--0-----------------------0-----|--0--0-0---0-0-0----------0-----|
|--0-----------------------2-----|--3--3-3---3-3-3----------2-----|
|--0-----------------------0-----|--0--0-0---0-0-0----------0-----|
|--2--2-2---2-2-2----------2-----|--2--2-2---2-2-2----------2-----|
|--2--2-2---2-2-2----------2-----|--2--2-2---2-2-2----------2-----|
|--0--0-0---0-0-0----------0-----|--0--0-0---0-0-0----------0-----|

|--0-----------------------0-----|--0--0-0---0-0-0----------0-----|
|--0-----------------------2-----|--3--3-3---3-3-3----------2-----|
|--0-----------------------0-----|--0--0-0---0-0-0----------0-----|
|--2--2-2---2-2-2----------2-----|--2--2-2---2-2-2----------2-----|
|--2--2-2---2-2-2----------2-----|--2--2-2---2-2-2----------2-----|
|--0--0-0---0-0-0----------0-----|--0--0-0---0-0-0----------0-----|

|--5---0------------0-----5------|--3---0--------------0----------|
|-------------3------------------|---------------3-------------3--|
|--------------------------------|--------------------------------|
|--3-------3-----3-----3---------|--2--------2------2------2------|
|--------------------------------|--------------------------------|
|--------------------------------|--------------------------------|

|--3----------------------3------|--------------------------------|
|------3------1-----3------------|--6-----------------------------|
|--------------------------------|-----5---------3------5----3----|
|--1-------1-----1----1----------|--------------------------------|
|--------------------------------|--5-------6-------6------6------|
|--------------------------------|--------------------------------|

|--------------------------------|--5-------------------------5---|
|--5----------------------5------|-----5---------3------5---------|
|------4------2------4-----------|--------------------------------|
|--------------------------------|--3-------3-------3------3------|
|--4-------4-----4------4--------|--------------------------------|
|--------------------------------|--------------------------------|

|--7---7-7----7--7---------------|--------------------------------|
|--7---7-7----7--7---------------|--------------------------------|
|--8---8-8----8--8---------------|--2--2----2-2-2--1---1--1-------|
|--9---9-9----9--9---------------|--2--2----2-2-2--2---2--2-------|
|--9---9-9----9--9---------9-----|--2--2----2-2-2--2---2--2-------|
|--7---7-7----7--7---------7-----|--0--0----0-0-0--0---0--0-------|

|-0---0-0-0---0-0-0------0-------|--0--0-0---0--------0-----0-----|
|-1---1-1-1---1-1-1------3-------|--5--5-5---5--------5-----7-----|
|-0---0-0-0---0-0-0------0-------|--0--0-0---0--------0-----0-----|
|-2---2-2-2---2-2-2------4-------|--5--5-5---5--------5-----7-----|
|-0---0-0-0---0-0-0------0-------|--0--0-0---0-----0--0-----0-----|
|--------------------------------|--------------------------------|

|--0--0-0---0--------0-----0-----|
|--5--5-5---5--------5-----7-----|
|--0--0-0---0--------0-----0-----|
|--5--5-5---5--------5-----7-----|
|--0--0-0---0-----0--0-----0-----|
|--------------------------------|

|--------------------------------|--------------------------------|
|--1------1--------1--/---3------|--1-------1---------1-----0-----|
|--0------0--------0--/---0---x--|--0-------0---------0-----0-----|
|--2---2-------2---2------4---x--|--2---2--------2----2-----0---x-|
|--0--------------------------x--|--0-----------------0-----0---x-|
|--------------------------------|--------------------------------|

|--------------------------------|--------------------------------|
|--1------1--------1--/---3------|--1-------1---------1-----0-----|
|--0------0--------0--/---0---x--|--0-------0---------0-----0-----|
|--2---2-------2---2------4---x--|--2---2--------2----2-----0---x-|
|--0--------------------------x--|--0-----------------0-----0---x-|
|--------------------------------|--------------------------------|

|--------------------------------|--------------------------------|
|--1-----------------------------|--------------------------------|
|--2------2------2-------2-------|--2--------2-------2------2-----|
|--2---2-----2-------2--------2--|------2--------2------2------2--|
|--0-----------------------------|--------------------------------|
|--------------------------------|--------------------------------|

|----------------0---------------|-----------------0--------------|
|--------0h1h3-------------------|--------0h1h3-------------------|
|--2-----------------------------|--2-----------------------------|
|-----2--------------------------|-----2--------------------------|
|--0-----0------------0----------|--0-----0---------------0-------|
|--------------------------------|--------------------------------|

|----------------0---------------|--0-----0h1h3-----5-------------|
|--------0h1h3------------0------|-----0-------------------0------|
|--2-----------------------------|--------------------------------|
|-----2--------------------------|--------------------------------|
|--0-----0-------0---------------|--0-----0---------0-------------|
|--------------------------------|--------------------------------|

|----------------0---------------|--0-----0h1h3-----5-------------|
|--------0h1h3------------0------|-----0-------------------0------|
|--2-----------------------------|--------------------------------|
|-----2--------------------------|--------------------------------|
|--0-----0-------0---------------|--0-----0---------0-------------|
|--------------------------------|--------------------------------|

|----------------0---------------|--0-----0h1h3-----5-------------|
|--------0h1h3------------0------|-----0-------------------0------|
|--2-----------------------------|--------------------------------|
|-----2--------------------------|--------------------------------|
|--0-----0-------0---------------|--0-----0---------0-------------|
|--------------------------------|--------------------------------|

|--6--5p3--1--0h1p0----0---------|------3p1p0------0--1--3--------|
|-------------------3------------|--3----------3------------------|
|--------------------------------|--------------------------------|
|--------------------------------|--------------------------------|
|--0--0----0-----------0---------|--0----------0---0-----0--------|
|--------------------------------|--------------------------------|

|--5-----------------------------|--8-----------------------------|
|--------------------------------|--------------------------------|
|--------------------------------|--------------------------------|
|--------------------------------|--------------------------------|
|--------------------------------|--------------------------------|
|--5--5--5--5---5--5--5--5-------|--8--8--8--8----8--8--8--8------|

|--7-----------------------------|--------------------------------|
|--------------------------------|--------------------------------|
|--------------------------------|--------------------------------|
|--------------------------------|--9-----9------9-----9----------|
|--------------------------------|--9-----9------9-----9----------|
|--7--7--7--7---7--7--7--7-------|--7--7--7--7---7--7--7--7-------|

|--5-----------------------------|--8-------------11--------------|
|--------------------------------|--------------------------------|
|--------------------------------|--------------------------------|
|--------------------------------|--------------------------------|
|--------------------------------|--------------------------------|
|--5--5--5--5---5--5--5--5-------|--8--8--8--8----11--11--11--11--|

|--7-----------------------------|-----6-----6---6--6-------------|
|--------------------------------|--------------------------------|
|--------------------------------|--------------------------------|
|--------------------------------|--------------------------------|
|--------------------------------|--------------------------------|
|--7--7--7--7---7--7--7--7-------|--6--6--6--6---6--6--6----------|

|--5-----------------------------|--0-----------------------------|
|--------------------------------|--------------------------------|
|--------------------------------|-----------------------------6--|
|--------------------------------|--------------------------------|
|--0----------0----------0----0--|--0------------0----------0--0--|
|--------------------------------|--------------------------------|

|--------------------------------|--------------------------------|
|-7--------------------------8---|-----------------------------6--|
|--------------------------------|-5------------------------------|
|--------------------------------|--------------------------------|
|-0----------0------------0--0---|-0------------0---------0----0--|
|--------------------------------|--------------------------------|

|--------------------------------|--------------------------------|
|--------------------------------|-----------------------------4--|
|--------------------------------|--7-----------------------------|
|--6--------------------------5--|--------------------------------|
|--0----------0----------0----0--|--0------------0----------0--0--|
|--------------------------------|--------------------------------|

|--------------------------------|--------------------------------|
|--------------------------------|--------------------------------|
|--------------------------------|--------------------------------|
|-4--------------------------4---|-3---------------------------3--|
|-0----------0------------0--0---|-0------------0---------0----0--|
|--------------------------------|--------------------------------|

|--------------------------------|--------------------------------|
|--1--------1---------3----------|---5--------5---------7---------|
|--------0-----------------------|---------0----------------------|
|-----2--------2-----------------|------5--------5----------------|
|--0--------0---------0----------|---0--------0---------0---------|
|--------------------------------|--------------------------------|

|--------------------------------|--------------------------------|
|--1--------1---------3----------|---5--------5---------7---------|
|--------0-----------------------|---------0----------------------|
|-----2--------2-----------------|------5--------5----------------|
|--0--------0---------0----------|---0--------0---------0---------|
|--------------------------------|--------------------------------|

|---------------2h3p2p0----------|---------------2h3p2p0----------|
|--5-------5-------------3-------|--5-------5-------------3-------|
|--0-------0---------------------|--0-------0---------------------|
|--5---5-------------------------|--5---5-------------------------|
|--0------------0----------------|--0------------0----------------|
|--------------------------------|--------------------------------|

|---------------2h3p2p0----------|---------------2h3p2p0----------|
|--5-------5-------------3-------|--5-------5-------------3-------|
|--0-------0---------------------|--0-------0---------------------|
|--5---5-------------------------|--5---5-------------------------|
|--0------------0----------------|--0------------0----------------|
|--------------------------------|--------------------------------|

|-------------0-1-0h1p0---0------|-5------------------------------|
|-------0-1-3-----------3--3-1-0-|--5-----------------------------|
|-----2--------------------------|---5----------------------------|
|---2----------------------------|----7---------------------------|
|-0------------------------------|-----7--------------------------|
|--------------------------------|------5-------------------------|

More of my work