Asturias

This is my take on Asturias (Leyenda) by Isaac Albéniz.
Asturias Tab
Standard tuning

|----------------------------|---------------------------|
|----0---0----0---0---0----0-|---0---0----0---0---0----0-|
|*---------------------------|---------------------------|
|*-----9===10===7===9===-----|-----9===10===7===9===-----|
|--7===-----------------10===|-7===-----------------10===|
|----------------------------|---------------------------|

|----------------------------|---------------------------|
|----0---0----0---0---0----0-|---0---0----0---0---0----0-|
|----------------------------|---------------------------|
|------9===10===7===9===-----|-7===---------7===---------|
|--7===-----------------10===|-----9===10===----9===10===|
|----------------------------|---------------------------|

|----------------------------|---------------------------|
|----0---0----0---0---0----0-|---0---0----0---0---0----0-|
|----------------------------|---------------------------|
|------9===10===7===9===-----|-----9===10===7===9===-----|
|--7===-----------------10===|-7===-----------------10===|
|----------------------------|---------------------------|

|----------------------------|---------------------------|
|----0---0----0---0---0----0-|---0---0----0---0----0---0-|
|----------------------------|---------------------------|
|------9===10===7===9===-----|-7===----------------------|
|--7===-----------------10===|-----9===10===7===---------|
|----------------------------|------------------10===8===|

|---------------------------|--------------------------|
|----0---0----0---0---0---0-|---0---0----0---0---0---0-|
|---------------------------|--------------------------|
|------9===10===7===9===----|-----9===10===7===9===----|
|-----------------------9===|----------------------9===|
|--7===---------------------|-7===---------------------|

|----------------------------|---------------------------|
|----0---0---0---0----0----0-|---0----0---0---0----0---0-|
|----------------------------|---------------------------|
|----------7===9===10===12===|-9===10===7===9===---------|
|------9===------------------|------------------10===9===|
|--7===----------------------|---------------------------|

|---------------------------|--------------------------|
|----0---0----0---0---0---0-|---0---0----0---0---0---0-|
|---------------------------|--------------------------|
|------9===10===7===9===----|-----9===10===7===9===----|
|-----------------------9===|----------------------9===|
|--7===---------------------|-7===---------------------|

|----------------------------|--------------------------|
|----0---0---0----0----0---0-|----0---0---0---0---0---0-|
|----------------------------|--------------------------|
|------7===9===10===12===9===|-10===7===9===5===7===4---|
|----------------------------|--------------------------|
|--7===----------------------|--------------------------|

|------7-----7-----7-----7-----7-----7-|-----7-----7-----7-----7-----7-----7-|
|----0-----0-----0-----0-----0-----0---|---0-----0-----0-----0-----0-----0---|
|--------4=====5=====------4=====------|-------4=====5=====------4=====------|
|--------------------7=====------5=====|-------------------7=====------5=====|
|--7-----------------------------------|-7-----------------------------------|
|--0===================================|-0===================================|

|------7-----7-----7-----7-----7-----7-|-----7-----7-----7-----7-----7-----7-|
|----0-----0-----0-----0-----0-----0---|---0-----0-----0-----0-----0-----0---|
|--------4=====5=====------4=====------|-------------------------------------|
|--------------------7=====------5=====|-7=====4=====5=====7=====4=====5=====|
|--7-----------------------------------|-------------------------------------|
|--0===================================|-------------------------------------|

|------7-----7-----7-----7-----7-----7-|-----7-----7-----7-----7-----7-----7-|
|----0-----0-----0-----0-----0-----0---|---0-----0-----0-----0-----0-----0---|
|--------4=====5=====------4=====------|-------4=====5=====------4=====------|
|--------------------7=====------5=====|-------------------7=====------5=====|
|--7-----------------------------------|-7-----------------------------------|
|--0===================================|-0===================================|

|------7-----7-----7-----7-----7-----7-|-----7-----7-----7-----7-----7-----7-|
|----0-----0-----0-----0-----0-----0---|---0-----0-----0-----0-----0-----0---|
|--------4=====5=====------4=====------|-------------0=====------------------|
|--------------------7=====------5=====|-7=====4=====------------0=====------|
|--7-----------------------------------|-------------------7=====------------|
|--0===================================|-------------------------------8=====|

|--7---------------------------------|-7---------------------------------|
|--7----0-0----0-0---0-0---0-0---0-0-|-7----0-0----0-0---0-0---0-0---0-0-|
|--8---------------------------------|-8---------------------------------|
|--9--9=====10=====7=====9=====------|-9--9=====10=====7=====9=====------|
|--9---------------------------9=====|-9---------------------------9=====|
|--7---------------------------------|-7---------------------------------|

|--7----------------------------------|---------------------------------------|
|--7----0-0---0-0---0-0----0-0----0-0-|---0-0----0-0---0-0---0-0----0-0---0-0-|
|--8----------------------------------|---------------------------------------|
|--9--------7=====9=====10=====12=====|-9=====10=====7=====9=====-------------|
|--9--9=====--------------------------|--------------------------10=====9=====|
|--7----------------------------------|---------------------------------------|

|--7---------------------------------|-7---------------------------------|
|--7----0-0----0-0---0-0---0-0---0-0-|-7----0-0----0-0---0-0---0-0---0-0-|
|--8---------------------------------|-8---------------------------------|
|--9--9=====10=====7=====9=====------|-9--9=====10=====7=====9=====------|
|--9---------------------------9=====|-9---------------------------9=====|
|--7---------------------------------|-7---------------------------------|

|--7----------------------------------|----------------------------------------|
|--7----0-0---0-0---0-0----0-0----0-0-|---0-0----0-0----0-0---0-0----0-0---0-0-|
|--8----------------------------------|----------------------------------------|
|--9--------7=====9=====10=====12=====|-9=====10=====-------9=====-------9=====|
|--9--9=====--------------------------|--------------12=====------10=====------|
|--7----------------------------------|----------------------------------------|

|--12-----------------------------------|-12-----------------------------------|
|---0----0-0----0-0----0-0---0-0----0-0-|--0----0-0----0-0----0-0---0-0----0-0-|
|---0-----------------------------------|--0-----------------------------------|
|---9--9=====10=====-------9=====-------|--9--9=====10=====-------9=====-------|
|--10---------------12=====------10=====|-10---------------12=====------10=====|
|---0-----------------------------------|--0-----------------------------------|

|-12-------------------------------|---------------------------------------|
|--0----0-0---0-0---0-0--0-0---0-0-|----0-0--0-0---0-0----0-0---0-0----0-0-|
|--0-------------------------------|---------------------------------------|
|--9--9====10====------9====-------|---------------------------------------|
|-10-------------12=====----10=====|-12====9====10=====12=====9=====10=====|
|--0-------------------------------|---------------------------------------|

|--12-------8------8-----8------8------8-|-12------8-----8----8-----8-----8-|
|---8------------------------------------|--8-------------------------------|
|---9-----9------9-----9------9------9---|--9----9-----9----9-----9-----9---|
|---8--10=====12=====9=====10=====-------|--8-10====12====9====10====-------|
|--10-----------------------------10=====|-10------------------------10=====|
|---8------------------------------------|--8-------------------------------|

|--12-------8------8-----8------8------8-|-----8----8-----8----8----8----8-|
|---8------------------------------------|---7----7-----7----7----7----7---|
|---9-----9------9-----9------9------9---|---------------------------------|
|---8--10=====12=====9=====10=====-------|-7====-----------7====-----------|
|--10-----------------------------10=====|------9====10====-----7====9=====|
|---8------------------------------------|---------------------------------|

|--7------7------7-----7-----7-----7-|--8-------8-----8----8-----8-----8-|
|--7---------------------------------|--8--------------------------------|
|--8----8------8-----8-----8-----8---|--9-----9-----9----9-----9-----9---|
|--9--9=====10=====8=====9=====------|--8--10====12====9====10====-------|
|--9---------------------------9=====|-10-------------------------10=====|
|--7---------------------------------|--8--------------------------------|

|--7------7------7-----7-----7-----7-|--8-------8------8-----8------8------8-|
|--7---------------------------------|--8------------------------------------|
|--8----8------8-----8-----8-----8---|--9-----9------9-----9------9------9---|
|--9--9=====10=====8=====9=====------|--8--10=====12=====9=====10=====-------|
|--9---------------------------9=====|-10-----------------------------10=====|
|--7---------------------------------|--8------------------------------------|

|--7------7-----7-----7-----7-----7-|-----7-----7-----7-----7-----7-----7-|
|--7----0-----0-----0-----0-----0---|---0-----0-----0-----0-----0-----0---|
|--8--4=====5=====------4=====------|-------------------------------------|
|--9--------------7=====------5=====|-7=====4=====5=====7=====4=====5=====|
|--9--------------------------------|-------------------------------------|
|--7--------------------------------|-------------------------------------|

|------7-----7-----7-----7-----7-----7-|-----7-----7-----7-----7-----7-----7-|
|----0-----0-----0-----0-----0-----0---|---0-----0-----0-----0-----0-----0---|
|--------------------------------------|-------------0=====------------------|
|--------4=====5=====7=====4=====5=====|-------4=====------------0=====------|
|--7=====------------------------------|-7=====------------7=====------------|
|--------------------------------------|-------------------------------8=====|

|----------------------------|---------------------------|
|----0---0----0---0---0----0-|---0---0----0---0---0----0-|
|----------------------------|---------------------------|
|------9===10===7===9===-----|-7===---------7===---------|
|-----------------------10===|-----9===10===----9===10===|
|--7===----------------------|---------------------------|

|----------------------------|---------------------------|
|----0---0----0---0---0----0-|---0---0----0---0----0---0-|
|----------------------------|---------------------------|
|---------------7===---------|---------------------------|
|--7===9===10===----9===10===|-7===9===10===7===---------|
|----------------------------|------------------10===8===|

|----------------------------------|-----------------------------------------|
|-----7-----7----7-----7----7----7-|-----8------8------8------8-----8------8-|
|---8-----8----8-----8----8----8---|---9------9------9------9-----9------9---|
|------------9====10====8====9=====|--------------10=====12=====9=====10=====|
|-------9====----------------------|-------10=====---------------------------|
|-7====----------------------------|-8=====----------------------------------|

|----------------------------------|-----------------------------------------|
|-----7-----7----7-----7----7----7-|-----8------8------8------8-----8------8-|
|---8-----8----8-----8----8----8---|---9------9------9------9-----9------9---|
|------------9====10====8====9=====|--------------10=====12=====9=====10=====|
|-------9====----------------------|-------10=====---------------------------|
|-7=====---------------------------|-8=====----------------------------------|

|----------------------------------|-------------------------------------|
|-----7----7----7-----7----7-----7-|-----7-----7----7------7-----7-----7-|
|---8----8----8-----8----8-----8---|---8-----8----8------8-----8-----8---|
|-----------9====10====8====10=====|-9====10====8=====10=====9=====------|
|------9====-----------------------|-------------------------------9=====|
|-7====----------------------------|-------------------------------------|

|-------------------------|----------------------11-11-14-14-|-<19>-|-------||
|-------------------------|-12-------------12-12-------------|------|-------||
|---------------8-8-11-11-|----------11-11-------------------|------|-4====-||
|-----------9-9-----------|----13-13-------------------------|------|-4====-||
|---6-6-9-9---------------|----------------------------------|------|-6====-||
|-7-----------------------|----------------------------------|------|-7====-||

| 1. 
|--7--------5--7--|-10--------7p8h7--5--|-7------------|-7================|
|-----------------|---------------------|--------------|-7----<19>--------|
|-----------------|---------------------|--------------|-9================|
|--9--------7--9--|-12--------9------7--|-9------------|-8================|
|-----------------|---------------------|--------------|-8================|
|-----------------|---------------------|--------------|-7----------------|

|--7--------5--7--|-10--------7p8h7--5--|-7------------|------------------|
|-----------------|---------------------|--------------|-3================|
|-----------------|---------------------|--------------|-4----<16>--------|
|--9--------7--9--|-12--------9------7--|-9------------|-5================|
|-----------------|---------------------|--------------|-5================|
|-----------------|---------------------|--------------|-3================|

|--7--------6=====|====3p5h3--2--------|---------------|-7================|
|-----------------|--------------5-s8--|-7-------------|-7----<19>--------|
|-----------------|--------------------|---------------|-8================|
|--9--------8=====|====----5--4--2-s5--|-4-------------|-9================|
|-----------------|--------------------|---------------|-9================|
|-----------------|--------------------|---------------|-7----------------|

|--7---------8--7--|-6--2--3p5h3--2-------|---------------|--------------|
|------------------|-----------------5-s8-|-7--------5----|-4------------|
|------------------|----------------------|----------3----|-4------------|
|--9--------10--9--|-8--4------5--4--2-s5-|-4--------4----|-4------------|
|------------------|----------------------|----------3----|-2------------|
|------------------|----------------------|---------------|--------------|

|----------------|-------------------8--|--------------|---------------|
|-------0--------|------4p5h4-----4-----|--------0-----|--------0----0-|
|-------7--------|----------5--7--5-----|--------7-----|---------------|
|--5=============|-4====================|-4s5==========|--------8----7-|
|----------------|----------------------|--------------|-6s9=========6-|
|----------------|----------------------|--------------|---------------|

|-----------------|----------------|----------------|------0--------|
|------------0----|-----------0----|-----------0----|---------------|
|-------0---------|----------------|----------------|------3--------|
|-----------------|------4---------|------4---------|---------------|
|--7==============|-5==============|-3==============|---------------|
|-----------------|----------------|----------------|-2=============|

|-----------------|-------0============|----------------|-------0============|
|-------4=========|--------------------|------4=========|--------------------|
|-------4=========|--------------------|------4=========|--------------------|
|------------4----|-------4============|-----------4----|-------4============|
|--2==============|-0--2--3--5p3-2--0--|-2==============|-0--2--3--5p3-2--0--|
|-----------------|--------------------|----------------|--------------------|

|-------------|----------------------|------------------|------------------|
|------4======|----------------------|------------------|------------------|
|------4======|----------------------|------------------|------------------|
|-----------4-|-7--9--10--12p10-9--7-|-9--8-----7--6----|-5--4-----3--2----|
|-2===========|----------------------|-------8--------7-|-------6--------3-|
|-------------|----------------------|------------------|------------------|

|-------------------|-------5======------|-----------0----|-------5======-----|
|--------------0----|-------6======------|-----------9----|-------6======-----|
|--------------8----|--------------------|----------------|-------------------|
|-------------------|--------------------|-----------9----|-------------------|
|---------9=========|-------5--7p5-------|------7=========|-------5--7p5------|
|--1s7==============|-7--8---------8--7--|-0==============|-7--8---------8--7-|

|------------0----|-------0-----------|------------------|-0-----------------|
|------------9----|----4-----0h1----0-|----0-----0-----0-|----6--8-----------|
|-----------------|-5-----0======2----|-0-----------0----|-0=====0--7h9-5--7-|
|------------9----|-2=====-------4====|-2====s4----------|-------0======4====|
|-------7=========|-0=====------------|-------6====s7====|--------------0====|
|--0==============|-------------------|------------------|-8====s7======-----|

|--------------------|--------5--8--6p8h6--5--|-8--5---------------------|
|-----3-----3-----3--|-s6--8------------------|-------8p10h8--7--10-s13--|
|--4----s3----s4-----|------------------------|--------------------------|
|--0=====0=====0=====|------------------------|--------------------------|
|--------------------|------------------------|--------------------------|
|--3====s2====s3=====|------------------------|--------------------------|

|---------------------|----------------|----------------------|-------------|
|--------5--7p5-------|-----------0----|--------7=============|-----------0-|
|--5--7---------7--5--|-----------8----|----------------------|-----------8-|
|--4=====-------5=====|----------------|--------8=============|-------------|
|--0============7=====|------9=========|--------7--9p7--------|------9======|
|---------------6=====|-7==============|-8--10---------10--8--|-7===========|

|-----------------------|-------------|------7-----7-----7-----7-----7-----7-|
|---------7=============|-----------0-|----8-----8-----8-----8-----8-----8---|
|-----------------------|-----------8-|--------------------7=====------------|
|---------8=============|-------------|--------8=====9=====------8=====9=====|
|---------7--9p7--------|------9======|-10=====------------------------------|
|--8--10---------10--8--|-7===========|--------------------------------------|

|----------------------------------|-----0-----0------0-----0------0-----0-|
|-------7----7----7----7----7----7-|---------------------------------------|
|-----7----7----7----7----7----7---|---------------------------------------|
|------------------7====-----------|---8-----8------8-----8------8-----8---|
|--------8====9====-----8====9=====|-------9=====10=====7=====-------------|
|--10=====-------------------------|-8=====-------------------10=====8=====|

|--7--------5--7--|-10----7h8p7--5--|-7------------|-7================|
|-----------------|-----------------|--------------|-7----<19>--------|
|-----------------|-----------------|--------------|-8================|
|--9--------7--9--|-12--------9--7--|-9------------|-9================|
|-----------------|-----------------|--------------|-9================|
|--7--------------|-----------------|--------------|-7----------------|

|--7--------5--7--|-10--------7h8p7--5--|-7-------------|--------------||
|-----------------|---------------------|----------5----|-4------------||
|-----------------|---------------------|----------3----|-4-----------*||
|--9--------7--9--|-12--------9------7--|-9--------4----|-4-----------*||
|-----------------|---------------------|----------3----|-2------------||
|-----------------|---------------------|---------------|--------------||

| 2. 
|---------|-0=============|--------------|---------------|--------------|
|----0----|---------------|-0------------|---------------|--------------|
|---------|-0--------2----|-0------------|-5=============|-0------------|
|---------|-2=============|-0------------|-2--------4----|-5------------|
|---------|-3=============|--------------|-0=============|--------------|
|---------|---------------|-3------------|---------------|-0------------|

|--2-------------|-1--------0----|-0------------|--------------------|
|--1--------2----|-1=============|--------------|----------0---------|
|--2--------3----|-2=============|-5------------|-8p9h8----0---------|
|----------------|---------------|-7------------|---------------7----|
|----------------|---------------|--------------|---------------9----|
|----------------|---------------|-7------------|--------------------|

|----------------------------|---------------------------|
|----0---0----0---0---0----0-|---0---0----0---0---0----0-|
|----------------------------|---------------------------|
|------9===10===7===9===-----|-----9===10===7===9===-----|
|--7===-----------------10===|-7===-----------------10===|
|----------------------------|---------------------------|

|-----------------------------------|-------------------------------------|
|-----------------------------------|-------------------------------------|
|---------0-----0-----0-----0-----0-|-----0-----0-----0-----0-----0-----0-|
|-----------------------------------|-------------------------------------|
|--7----7-----7-----7-----7-----7---|---7-----7-----7-----7-----7-----7---|
|-----8=====6=====8=====6=====8=====|-6=====8=====6=====8=====6=====8=====|

|--<12>------------|-------------0-||
|--<12>------------|-----5-5---5---||
|--<12>------------|---------------||
|------------------|---2-----2-----||
|------------------|---------------||
|--<12>------------|-0-------------||

More of my work