Claude Debussy – Clair de Lune

Clair de Lune Tab

Piano score: http://www.musanim.com/pdf/debussyclairdelune.pdf
Standard tuning: E A D G B E (Capo: 1 for original tuning)
Time signature: 9/8, Tempo: Andante très expressif
Timed after Claudio Arraus's version

Written by Claude Debussy
Guitar arrangement by Oddnejm

1 - 0:00-0:22    
  |        |          |        |        |         |
|-------0-------------0------|-------0--------------------|
|-------8--------------------|----0-----0-----------------|
|----0----------------5------|----7--5--7-----------------|
|----------------------------|-6--------------------------|
|----7-----------------------|-8--------------------------|
|----------------------------|----------------------------|

  |        |        |          |         |         |
|--------------0-------------|----------------------------|
|-------0--------------------|-0--------------------------|
|-0--5-h7--5------------5----|----4-4h5--4----------------|
|----7-----7-----------------|-5--5-5h5--5----------------|
|-7--------------------------|-5--------------------------|
|----------------------------|----------------------------|

5 - 0:22-0:42
  |        |       |           |        |       |
|----------------------------|----------------------------|
|-------0-----3--------------|----------------------------|
|----2-----2-----2---0-2--0--|-------0--------------------|
|-3-----------------0--------|----3-----3---------2-------|
|-5----------------2---------|-3-----------------5--------|
|----------------------------|-5----------------4---------|

  |        |       |           |        |          |
|----------------------------|----------------------------|
|----------------------------|---------------------0------|
|----------2-----------------|----5/-7--5-----------------|
|-2-2-3p2------2-----0-2--0--|---------------------0------|
|-3-----------------0--------|----3/-5--3----------2------|
|-3----------------1---------|-0-------------------1--3---|

9 - 0:42-1:02
  |        |        |          |        |         |
|----------0--------0--------|-------0--------------------|
|----------8-----------------|----3-----3-----------------|
|-------0-----------5--------|----2-----2-----------------|
|----------------------------|-3--------------------------|
|----7-----------------------|----------------------------|
|-8--------------------------|-1--------------------------|

  |        |           |       |        |          |
|-----------3-------------0--|-------0--------------------|
|----1--3---1------------1---|----3-----3-----------------|
|----0------0-----------0----|----2-----2---------/5------|
|----2-----------------2-----|-3--------------------------|
|----------3-----------------|----------------------------|
|-0--------------------------|-1--------------------------|

13 - 1:02-1:23
  |         |       |          |        |       |
|-----------------------0----|-------0--------------------|
|----1--3--10--8-------------|----3-----3---1-------------|
|----0-----------------------|----2-----2-----------2-----|
|----2------7--5-------------|----2-----------------------|
|-----------------------7----|-0--------------------------|
|-3--------------------------|----------------------------|

  |         |        |          |        |         |
|-------12----10-10-10--8--8-|--8--7--7--7--/8------------|
|-------10----10-10-10-10-10-|-10-10-10-10--------10------|
|-------10----10-------------|--------------------10------|
|-0--------------------------|----------------------------|
|----------------------------|----------------------------|
|----------------------------|----------------------------|

17 - 1:23-1:41
    |       |        |          |        |         |
|-------12----13-12-10-12-10-|--8-10--8--7--10p8----------|
|-------10----10-10-10-10-10-|-10-10-10-10--10----10------|
|-------10-------------------|--------------------10------|
|-<12>-----------------------|----------------------------|
|----------------------------|----------------------------|
|----------------------------|----------------------------|

  |         |         |        |        |        |
|-----------3----7----5----1-|----1--1--1--1--3--1--------|
|------6---------------------|----3--3--3--3--3--3--------|
|------5----4----------------|----4--4--4--4--------------|
|------3----5----9----7----3-|----------------------------|
|----------------------------|----------------------------|
|-3--------------------------|-4--------------------------|

21 - 1:41-1:58
  |         |         |        |        |        |
|------1----3----8----5------|----1--1--1--1--3--1--------|
|------1----1----6----6----6-|----3--3--3--3--3--3--------|
|------2----2----5----5----5-|----2--2--2--2--2--2--------|
|---------------------7------|----------------------------|
|-0------------------------8-|-2--------------------------|
|----------------------------|----------------------------|

  |         |        |         |        |        |
|------1----3---10---8-------|----5--5--5--5--7--5--8-10--|
|------1----1-------10----10-|----6--6--6--6--8--6-10-----|
|------2----2----7-------10--|----5--5--5--5--7--5-10-----|
|-------------------10--10---|-0--------------------------|
|-3--------------------12----|----------------------------|
|----------------------------|----------------------------|

25 - 1:58-2:21
  |    |   |      |    |   |
|----3--------3-|----3----------3<15>-|
|---1--------1--|---1----------0------|
|--0--------0---|--0----------0-------|
|-2--------1----|-0----------3--------|
|---------------|-----------2---------|
|---------------|----------3----------|

  |           |           |
|--3--------------------0-6-------8---|
|-----1-----1---------0-------------8-|
|---0-----0---------0-----------3-8---|
|-------2---------2-----------5-------|
|-3-------------2-----------6---------|
|-------------0-----------3-----------|

  |           |           |
|--3--------------------0-6-------3---|
|-----1-----1---------0---------------|
|---0-----0---------0-----------3-----|
|-------2---------2-----------5---5---|
|-3-------------2-----------6-------6-|
|-------------0-----------3-----------|

29 - 2:21-2:44
  |             |           |
|---------------0-------------------0---|
|-0h1-------3---------------1-------1---|
|-------0---0-------0-------0---------0-|
|-----2---2---2---2-------2---2---------|
|-3-------------3-------3-------3---3---|
|---------------------3-----------3-----|

  |           |           |
|-2---0-------------------------------|
|-3---1---1---1-----------------------|
|---------2---2---------------2---2---|
|-0---0-4---0-4-0-----------0-------0-|
|---0-------------0---3---3-----0-----|
|-------------------2---2-------------|

  |           |           |
|---------------------------------0---|
|--------------------------0------0---|
|-2-----------2-----2-----------0-----|
|---0-3-----3-----3-----3-----2-----2-|
|-------0h2-----3-----3-----2---------|
|-3-----------1-----------0-----------|

  |           |           |
|---------------------------------0---|
|--------------------------0------0---|
|-2-----------2-----2-----------0-----|
|---0-3-----3-----3-----3-----2-----2-|
|-------0h2-----3-----3-----2---------|
|-3-----------1-----------0-----------|

33 - 2:44-3:07
  |           |           |
|--1----------------0-----------------|
|-----------3-----3-------2-----3-----|
|---------2-----2-------2-----2-----2-|
|-0---0h3-----3-----2h3-----3---0h3---|
|---0---------------------4-----------|
|-------------------------------------|

  |           |           |
|-5-----------------------3---------3-|
|-------------------------------0-4---|
|-----2-2---2-----2-2---2-----0-------|
|---3-----3-----3-----3-----1---------|
|-4-----------5-----------------------|
|-------------------------3-----------|

  |           |           |
|-3---------------------0-6-------8---|
|-------1-----0-------0---------------|
|-----0---0---------0-----------3-8---|
|---2-------2-----2-----------5-------|
|-3-------------2-----------6---------|
|-------------0-----------3-----------|

  |           |           |
|-3---------------------0-6-------3---|
|-------1-----0-------0---------------|
|-----0---0---------0-----------3-----|
|---2-------2-----2-----------5---5---|
|-3-------------2-----------6-------6-|
|-------------0-----------3-----------|

37 - 3:07-3:29
  |            |             |
|-8-----------11---------8---3<15>-----3-----|
|---------8----------------8---------1---4-1-|
|-----0-----8----------------------3---------|
|-------8-----------8h10-----1---------------|
|---6------------10--------------------------|
|-6------------8-----------------------------|

  |               |               |
|-3<15>-------3---1<13>-------1-----------1---|
|-----------1---1-----------1---1-------1---1-|
|---------1---------------1-----------1-------|
|-1---------------3---------------2-----------|
|---------------------------------------------|
|---------------------------------------------|

  |               |           |
|-1<13>-------1-----------1---4<16>-------1<20>---|
|-----------1---1-------1---1-----------1---------|
|---------1-----------1---------------1---------1-|
|-1---------------0-------------------------------|
|-----------------------------3-------------------|
|-------------------------------------------------|

  |           |            |
|--1---------------------------------8---|
|---------1-----------1-----9--------9---|
|-----------1-----------1----------8---8-|
|-----3-3---------1h3-----------10-------|
|-1-----------------------10-------------|
|-------------4--------------------------|

41 - 3:29-3:54
   |               |               |
|-11----10----8----6--------4-----------------------|
|-13----11----9----8--------6--------------8----6---|
|----10----10---10-------------------------8----7---|
|----------------------8--------6---------------8---|
|---------------------------------------------------|
|---------------------------------------------------|

  |           |           |
|-------------------------------------|
|-4---3---1---------------------------|
|-5---3---1---3---1---0---------------|
|---3---3---3-5---3---1-------3---1---|
|---------------3---3---3-----5---3---|
|-------------------------4-----------|

  |           |           |
|-------------------------1-------5---|
|-3-------------------1---0-------3---|
|---------0---2-----------------------|
|-3-0---0---0---0---0---0---0---0---0-|
|-------------------------------------|
|-3---3---3---3---3---3---3---3---3---|

  |           |           |
|-------------------------1-------5---|
|-3-------------------1---0-------3---|
|---------0---2-----------------------|
|-3-0---0---0---0---0---0---0---0---0-|
|-------------------------------------|
|-3---3---3---3---3---3---3---3---3---|

45 - 3:54-4:16
  |               |           |
|-5---<12>---10---5-----------3-----------|
|-6---<12>---10---6-------1-------0---3---|
|-5---<12>---10---5---2-------------------|
|---0------0----0---0---0---0---0---0---0-|
|-----------------------------------------|
|-----------------------------------------|

  |               |           |
|-5---<12>---10---5-----------3------------|
|-6---<12>---10---6-------1-------0--------|
|-5---<12>---10---5---2--------------------|
|---0------0----0---0---0---0---0---0-<12>-|
|------------------------------------------|
|------------------------------------------|

   |                 |                 |
|--10---------------------------------13-------------17----|
|----------10----------------10-------12---------12-----12-|
|-------10-------10-------10-------10--------10------------|
|----12----------------12-------10-------12----------------|
|-------------10----12-------------------------------------|
|-13-------------------------------------------------------|

   |                 |                 |
|--10---------------------------------13-------------17----|
|----------10----------------10-------12---------12-----12-|
|-------10-------10-------10-------10--------10------------|
|----12----------------12-------10-------12----------------|
|-------------10----12-------------------------------------|
|-13-------------------------------------------------------|

49 - 4:16-4:39
   |               |              |
|--10--------------------------------------------|
|------------10-------------12-------------10----|
|---------10----10-------10----10-------10----10-|
|-------0--------------0--------------0----------|
|-8----------------8--------------8--------------|
|------------------------------------------------|

  |             |                |
|---------------8---------------10-------------|
|----------9---------------11p9-----------9----|
|-------10---10---------10-10----------10------|
|-----0--------------12--------------8---------|
|-8-------------8----------------8----------11-|
|----------------------------------------------|

  |           |               |
|-------------3<15>-----------0<12>-------------|
|-----------1-----------------------------------|
|---------0-------------------------------------|
|-------2---------------------------------------|
|-----3-----------------------------------------|
|-0---------------------------0-----------------|

  |                   |       |
|-------------0<12>-----------------------------|
|-----3<15>-----------3<15>---------------------|
|-----------1-----------------------------------|
|-----2-----------------------------------------|
|---3-------------------------------------------|
|-0---------------------------0-----------------|

53 - 4:39-5:02
  |                 |           |
|-------------------------0<12>-------------------|
|-----1<13>---3<15>-1<13>---------1<13>-----------|
|-----------0-------------------------------------|
|---2---------------------------------------------|
|-0-----------------------------0-----------------|
|-------------------------------------------------|

  |                  |               |
|------------------------------------------------|
|-----0<12>---1<13>--0<12>-----------------------|
|-----------0------------------------------------|
|-----3------------------------------------------|
|---2--------------------------------------------|
|-3----------------------------------3-----------|

  |               |                 |
|---------------------------------------3<15>-5<17>-3<15>-|
|-----------0<12>-------3<15>-----------------------------|
|-----2<14>-------2<14>-------2<14>-----0-----------------|
|-----0-------------------------------0-------------------|
|---3-------------------------------2---------------------|
|-1-------------------------------------------------------|

  |               |         |
|-----1<13>-3<15>-1<13>-----0<12>---------------|
|-----------------------------------------------|
|-----2---------------------1-------------------|
|---3-----------------------2-------------------|
|-2-------------------------2-------------------|
|---------------------------0-------------------|

57 - 5:02-5:25
  |                 |                 |
|-----0<12>---1<13>-0<12>-5<17>-------------------------|
|-------------------------------5<17>-3<15>-5<17>-3<15>-|
|-----2-------------------------------------------------|
|---2---------------------------------0-----------------|
|------------------------------------0------------------|
|-3---------------------------------1-------------------|

  |                 |          |
|-----------------------------------------------|
|-----1<13>---3<15>-1<13>------0<12>------------|
|------------------------------------0<12>------|
|-----2------------------------3----------------|
|---3--------------------------2----------------|
|-0----------------------------3----------------|

  |        |       |           |        |        | 
|----------0-------0---------|-------0--------------------|
|----------8-----------------|----3-----3-----------------|
|-0----------------5---------|----2-----2-----------------|
|-------5--------------------|-3--------------------------|
|----7-----------------------|----------------------------|
|-8--------6-----------------|-1--------------------------|

61 - 5:25-5:50
  |        |       |           |        |      |
|----------3-------0---------|-------0--------------------|
|----1--3--1-------1---------|----3-----3------1----------|
|----0-----0-------3---------|----2-----2-----------------|
|----2-------------2---------|----2-----2-----------------|
|----------------------------|-0--------------------------|
|-3--------------------------|----------------------------|

  |        |       |           |        |       |
|----------------------------|----------------------------|
|----------------------------|----------------------------|
|------------------0---------|-------0--5-------2---------|
|----------7-----------------|----3-----3-------3---------|
|----3-/5--7-----------------|-5--------------------------|
|-0----------------8---------|----------------------------|

65 - 5:50-6:16
  |        |       |
|----------3-----------------|
|-------0--------------------|
|----2-----0--------0--------|
|----0-------------3---------|
|----2------------2----------|
|-3--------------------------|

  |           |           |
|-----------------------0-------------|
|-----1-----1---------0-------1-----1-|
|---0-----0---------0-------0-----0---|
|-------2---------2-------------2-----|
|-3-------------2---------3-----------|
|-------------0-----------------------|

  |           |             |
|-----------0-------------------------|
|---------0-------------4-------------|
|-------0-------3-----3-----5---------|
|-----2-------------5-----------------|
|---2-------------6-------------------|
|-0-----------3-----------------------|

  |           |           |
|-----------------------0-------------|
|-----1-----1---------0-------1-----1-|
|---0-----0---------0-------0-----0---|
|-------2---------2-------------2-----|
|-3-------------2---------3-----------|
|-------------0-----------------------|

69 - 6:16-6:48
  |           |                 |
|-----------0-----------------------------|
|---------0-----------------4-------------|
|-------0-----3<15>-------3-----5<17>-----|
|-----2-----------------5-----------------|
|---2-----------------6-------------------|
|-0-----------3---------------------------|

  |                 |          |
|-------------------------------------|
|---------------4--------------4<16>--|
|-3<15>-------3-----5<17>-------------|
|-----------5-------------------------|
|---------6---------------------------|
|-3-----------------------------------|

  |                   |                 |
|-3<15>---------------------------------0<12>-3<15>-1<20>-|
|---------------------------------1<13>-------------------|
|-------------0-------------0<12>-------------------------|
|-----------2---------2<14>-------------------------------|
|-3-------3-----3<15>-------------------------------------|
|-------3-------------------------------------------------|

  |         |             |
|-------------------------------------|
|-------13----------------------------|
|-----12------------------------------|
|---14--------------------------------|
|-15----------------------------------|
|-----------8-------------------------|

Fin

More of my work