Classical Gas (Tommy Emmanuel arr.)

Tab to tutorial of Classical Gas (Tommy Emmanuel arr.)

Music by Mason Williams
Arranged by Tommy Emmanuel
Tutorial & Tab by Oddnejm

part 1: (0:00-0:04)

   p = pick with pulgar (thumb)      i = pick with index
   p       p i     p     p i   p        p i   p     p i   p   p     
E|-8p7p5p0---5p0-------------------|----------------------------------|
B|---------8-------8p5p0---5p0-----|----------------------------------|
G|-----------------------7-----7p5-|-p0---5p0-------------------------|
D|---------------------------------|----7-----7p5p0---1p0-------------|
A|---------------------------------|----------------7-----3p0---------|
E|---------------------------------|--------------------------0h3b----|

part 2: (0:04-0:24)

                                    m = middle finger                                                                 
  p   p                             p  p  i  p  p ...                            p   p            p  p  m i   p   m i   p   m ...
|---------------------------------|----------------------------|--------------------------------|-------0---------0---------0--------0--|
|-------------0---1---3p1p0-------|-0--------------------------|-1p0---------------------0------|---------1p0-------1p0-------1p0-------|
|---------2-------------------2---|-------0--------0--------0--|-----2--p0---2---------------2--|-------------2---------2---------2-----|
|-----2---------------------------|----0--------0--------2-----|---------------------2----------|----2----------------------------------|
|-0-------------------------------|----------------------------|--------------------------------|-0-------------------------------------|
|---------------------------------|-3--------2--------0--------|-----------------0--------------|---------------------------------------|

               Rake                 let ring                                                            m   i         * TE plays with thumb 
                   4   4   4 = left pinky     p         p   p         Rake            1 = left index    p               on low E here
|--------0-----5---7---8--p7--p5--|-3~~-----------------------------|-0-------------------------------|-----------------0-------1-------|
|-1p0------0---5------------------|-------------------0-------------|-0-------3p1p0-----------0-------|-1-------3-----------------------|
|-----2--------5------------------|---------------0-------------0---|-0---------------2p0-2-----------|-----2-------0-------0-------2---|
|--------------7------------------|-----------0-------------0-------|-2-------------------------------|---------------------------------|
|--------------0~~----------------|---------------------------------|-2-------------------------------|-0-------2-------3---------------|
|---------------------------------|-------3-------------2-----------|-0-------------------------------|-------------------------1*------|

N.B. I play the same notes as TE but I've simplified some chords (they sound the same but are easier to play)            
                     (alternatively rake with thumb here)                                                             
|-2-------3-------4-----4-5-----5-|-7-----7p0-----------------------|-<12>----------------------------|---------------------------------|
|----------------------3-------4--|------6-----6-------------<12>---|---------1-/-9---8----7----6-----|--5------------------------------|
|-----2-------0-------4-------5---|-----7---------7-----------------|---------1-/-10--8----7----6-----|--5-----------------5------------|
|--------------------2-------4----|----6-------------6--------------|---------------------------------|--------------------6------------|
|---------------------------------|-----------------------<7>-------|---------------------------------|---------------------------------|
|-2-------3-----------------------|--------------------<7>----------|---------------------------------|----------0----------------------|

part 3: (0:24-0:35)

|---------------------------------|---------------------------------|---------------------------------|---------------------------------|
|-0h1---------0-------1-------1p0-|---------------------------------|-0-------------------0-----------|---------------------------------|
|---------2-----------------------|---------0----------0------------|-----2--p0---2---------------2---|-----0--h2-------0--h2-------2---|
|-----2---------------------------|-----0----------0-----------2----|-------------------------2-------|-----0--h2-------0--h2-----------|
|-0---------------0---------------|---------------------------------|---------------------------------|-0-----------0-----------0-------|
|-------------------------0-------|-3----------2-----------0--------|---------0-------0---------------|---------------------------------|

                                                                            d = down strum  u = up strum   
                                                                                         d        d u   d   
|---------------------------------|---------------------------------|--------------------0--------0-0-|-0---0---0---1-|-2---3---4--5-7--|
|-1--p0-------0-------1-------1p0-|---------------------------------|-1p0----------------0--------1-1-|-1---3---1---1-|-3---0---3--4-6--|
|---------------------------------|---------0-----------0-----------|-----2--p0---2------0--------2-2-|-2-------------|-----------------|
|---------2-----------------------|-----0-----------0-----------2---|--------------------2--------2-2-|-2-------------|---------2--4-6--|
|-0---------------0---------------|---------------------------------|--------------------2--------0-0-|-0---2---3-----|-----------------|
|-------------------------0-------|-3-----------2-----------0-------|---------0----------0------------|-------------1-|-2---3-----------|

part 4: (0:35-0:50)

|-8---7---5-----------5-----------|---------------------------------|-8---7---5-----------------------|---------------------------------|
|-5---5---5---8-------5-------7---|---------------------------------|-5---5---5---8-------8-------7---|-----7---x-------7---------------|
|-------------5---x-------x---5---|-----------------2---------------|-------------5-------5---x---5---|-----5---x-------5---------------|
|-----------------x-------x-------|---------------------------------|-------------------------x-------|---------------------------------|
|-0-------------------0-----------|-0---2---x---0-------3---2---0---|---------------------------------|-0-----------0-------0---0---0---|
|---------------------------------|---------------------------------|-----------------0---------------|---------------------------------|

                                                              a = annularis, ring finger 
                              tS = triple strum down (with ima)                                                                  u     
|-8---7---5-----------5-------5---|---------5---------5-------------|-3--------------0----------------|-1--------------1---------1------|
|-5---5---5---8-------5-------7---|---------7---------7-------------|-0--------------1----------------|-1--------------3---------3------|
|-------------5-----------x---5---|---------5-----x---5---x---------|-----------0---------------------|--------------------------2------|
|-------------------------x---7---|---------7-----x---7---x---------|------0--------------2----2------|-3----3----3--------------3------|
|-----------------0-----------5---|-------------------5-------------|----------------3----------------|----------------1----1----1------|
|---------------------------------|---------------------------0--2--|-3-------------------------------|---------------------------------|

                                                                          rk = right knuckle   ls = left hand slap   rs = right hand slap
  d                                                     d   d   d     d                                         rk  ls   rs   rs   ls
|-0----0-------------0------------|-0-----------0-------------------|---------0-----------0-----------|-0--20---------------------------|
|-3---------3-------------3-------|-----3-----------3---------------|-------------3-------0-----------|-0--20---x-----------------------|
|-2--------------2------------2---|---------2-----------2-----------|-1-------------------------------|-1--20---x--------x----x---------|
|-3-------------------------------|---------------------0-----------|-2---------------2---------------|-2-------x---x----x----x----x----|
|-2-------------------------------|---------------------0-----------|-2-------------------------------|-2-------------------------------|
|---------------------------------|-------------------------3---1---|-0---0-------------------0---0---|-0-------------------------------|

part 5: (0:50-1:02)

  furiously
|---------------------------------|---------------------------------|---------------------------------|---------------------------------|
|---------------------0--h1-------|-1p0-----------------------------|-1p0-----------------0-----------|---------------------------------|
|-0h2------x------------------2---|---------0-----------0-----------|-----2--p0---2---------------2---|-----0--h2-------0--h2-------2---|
|-0h2------x---2----------0-------|-----0-----------0-----------2---|-------------------------2-------|-----0--h2-------0--h2-----------|
|-0---------------0---------------|---------------------------------|---------------------------------|-0-----------0-----------0-------|
|-0-------------------------------|-3-----------2-----------0-------|---------0-------0---------------|---------------------------------|

|---------------------------------|---------------------------------|---------------------------------|---------0---1-|-2---3---4--5-7--|
|-1--p0-------0-------1-------1p0-|---------------------------------|-0-----------------------0-------|-1---3---1---1-|-3---0---3--4-6--|
|---------------------------------|---------0-----------0-----------|-----2--p0---2-------------------|-2---0---0---2-|-2---0-----------|
|---------2-----------------------|-----0-----------0-----------2---|---------------------2-----------|---------------|---------2--4-6--|
|-0---------------0---------------|---------------------------------|---------------------------------|-0---2---3-----|-----------------|
|-------------------------0-------|-3-----------2-----------0-------|---------0-------0---------------|-------------1-|-2---3-----------|

part 6: (1:02-1:17)

|-8---7---5-----------------------|---------------------------------|-8---7---5-----------------------|---------------------------------|
|-5---5---5---8-------5-------7---|---------------------------------|-5---5---5---8-------5-------7---|----<7>---------<12>----<7>------|
|-------------5-------5---x---5---|-----------------2---------------|-------------5-------5---x---5---|----<7>---------<12>----<7>------|
|-------------------------x-------|---------------------------------|-------------------------x-------|---------------------------------|
|---------------------------------|-0---2---3/5-0-------3---2---0---|---------------------------------|-0-------0---0-------0-------0---|
|-----------------0---------------|---------------------------------|-----------------0---------------|---------------------------------|

                              tS                                                                            u    d
|-8---7---5-------------------5---|-----5------------5--------------|-----3---------0------------1----|-----1----------0--------0-------|
|-5---5---5---8-------5-------7---|-----7-----7-7-7--7--------------|-----0---------1------------1----|-----3----3--------3--------3----|
|-------------5-------5-------5---|-----5-----5-5-5--5--------------|-----0---------0------------2----|-----2----2-----------2--------2-|
|-----------------------------7---|-----7-----7-7-7--7---7----------|------------------------3--------|-----3----3----------------------|
|-----------------0-----------5---|-----5-----5-5-5--5---5----------|---------0---2h3----3---------0--|-1--------1-/-2------------------|
|-------------------------0---5---|-----5------------5-------0---2--|-3-------------------------------|---------------------------------|

                   d    u                               u
|-0--------0----------------------|-0-------0-----------0-----------|-0-----------------------------------------------------------------|
|----3--------3----3----3---------|-0-----------3-------3-----------|-0-----------------------------------------------------------------|
|-------2----------2----2---------|-1---------------1---1-----------|-1-----------------------------------------------------------------|
|------------------3----3---------|-2-------------------------------|-2-----------------------------------------------------------------|
|---------------------------------|-2-------------------------------|-2-----------------------------------------------------------------|
|----------------------------0----|-0-----------------------0---0---|-0-----------------------------------------------------3-/-10-\----|

part 7: (1:17-1:28)

|-0---0-------------------0---3---|-1---------1---------0-----------|-0-------0-----------------------|---------------------------------|
|-1---1---------------1---1---1---|-1---------1---------1-----------|-1-------1---------------1-------|-------------1---------------1---|
|-------------0-------0-----------|---------------------------------|-----------------0-----------0---|-0-------1---------------0-------|
|-------------2-------------------|---------------------------------|---------------------2-----------|-----5-----------3---2-----------|
|---------------------------------|---------------------------------|---------------------------------|---------------------------------|
|-3---3-------3-------------------|-3---------3-----3---3---3---3---|-----x-------3-------------------|---------------------------------|

|------------------3---4-6p4p3----|-4-----4-----3-----------|--------------------------|-7-------8-------9-------|-10---------11--------|
|---------------4-----------------|-4-----4-----4-----------|-4--------6--------6------|-8-------8-------10------|-10---------12--------|
|------------3--------------------|-5-----5-----3-----------|-5--------5--------7------|-7-------9-------9-------|-11---------11--------|
|---------5-----------------------|-------------------------|--------------------------|-------------------------|----------------------|
|-3-/-6---------------------------|-------------------------|--------------------------|-------------------------|----------------------|
|---------------------------------|-4-----4-----3-----3--3--|----4--4-----5--5-----6-7-|----7--8----8--9----9-10-|-----10--11-----0---0-|

part 8: (1:28-1:39)

  d
|-12------------------------------|-----12----------12------12------|-12------------------------------|-----12----------12------12------|
|-9-------------------------------|-----9-----------9-------9-------|-10------------------------------|-----10--10------10------10------|
|-9-------------------------------|-----9---9---9---9---9---9---9---|-11------------------------------|-----11--11--11--11--11--11--11--|
|-9-------------------------------|-----9---9---9---9---9---9---9---|-10------------------------------|-----10------10--10--10--10--10--|
|---------------------------------|---------------------------------|---------------------------------|---------------------------------|
|-------------0---0---0---0---0---|-0-------------------------------|------0---0---0---0---0---0---0--|--0------------------------------|

                                                                            rk = right knuckle  ls = left hand slap  rs = right hand slap
                                                                                       *I haven't got 21 frets so ...    rk ls rs rs ls
|-12------------------------------|-----12----------12------12------|-12---12---12---12---12---12-----|---------------------------------|
|-11------------------------------|-----11----------11------11------|-12---12---12---12---12---12-----|-----------*19-------------------|
|-12------------------------------|-----12--12--12--12--12--12--12--|-13---13---13---13---13---13-----|------------19----x--------------|
|-11------------------------------|-----11--11--11--11--11--11--11--|-12---12---12---12---12---12-----|------------19----x-----x--x-----|
|---------------------------------|---------------------------------|---------------------------------|------------------x--x--x--x--x--|
|------0---0---0---0---0---0---0--|--0------------------------------|---------------------------------|-12-x-x-3-0----------------------|

part 9: (1:39-1:50)

  furiously                                                                               m  i     p    i   p     p i   p     p i    p
|---------------------------------|---------------------------------|---------------------0--8p5p0----|-5p0-----------------------------|
|---------------------0--h1-------|-1p0-----------------------------|-0----------------------------8--|-----8p5p0---5p0-----------------|
|-0h2---------2---------------2---|---------0-----------0-----------|-----2--p0---2-------------------|-----------7-----7p5p0---5p0-----|
|-0h2-----2---------------2-------|-----0-----------0-----------2---|---------------------------------|-----------------------7------0--|
|-0---------------0---------------|---------------------------------|---------------------------------|---------------------------------|
|-0-------------------------------|-3-----------2-----------0-------|---------0-------0---------------|---------------------------------|

                                                                                          d     d u     d                       d  d d
|---------------------------------|---------------------------------|---------------------0-----------|-0--0---0---1-|----2--3--4--5-7--|
|-------------0--h1---3p1p0-------|-0-------------------------------|-1p0-----------------0-----1-1---|-1--3---1---1-|----3--0--3--4-6--|
|------------------------------2--|---------0-----------0-----------|-----2--p0---2-------0-----2-2---|-2--0---0---2-|----2--0--4--5-7--|
|---------2---------------2-------|-----0-----------0-----------2---|---------------------2-----2-2---|-2------------|----------2--4-6--|
|-0---------------0---------------|---------------------------------|---------------------2-----------|----2---3-----|------------------|
|---------------------------------|-3-----------2-----------0-------|---------0-------x---------------|------------1-|----2--3----------|

part 10: (1:50-2:06)

|-8---7---5-----------------------|---------------------------------|-8--7-\--5-----------------------|---------------------------------|
|-5---5---5---8-------5-------7---|---------------------------------|-5-------5---8-------5-------7---|----<7>---------<12>----<7>------|
|-------------5-------5---x---5---|-----------------2---------------|-------------5-------5---x---5---|----<7>---------<12>----<7>------|
|-------------------------x-------|---------------------------------|-------------------------x-------|---------------------------------|
|-0---0---0-----------------------|-0---2--3/5--0-------3---2---0---|---------------------------------|-0-------0---0-------0-------0---|
|-----------------0---------------|---------------------------------|-----------------0---------------|---------------------------------|

                              tS        u       u   d   u                                                    
|-8-\-7---5-------------------5---|-----5-------5-------5-----------|-----3--------------0------------|-----1-----------1---------------|
|-5-------5---8-------5-------7---|-----7-------7---7---7-----------|-----0--------------1------------|-----1-----------3-----------3---|
|-------------5-------5-------5---|-----5-------5---5---5-----------|-----0--------------0------------|-----2-----------2-----------2---|
|-----------------------------7---|-----7-------7---7---7-----------|------------------------0---2----|-3-------x---x---3---3---3---3---|
|-----------------------------5---|-----------------5---------------|---------0---2---3---------------|---------x---x---1---1---1---2---|
|-----------------0-------0---5---|-----------------5--------0---2--|-3-------------------------------|---------------------------------|

                                                        u       d                                 d
|-----0-----------0-----------0---|---------0-----------0-------0---|-----0-------0---0-----------0---|---------------------------------|
|---------3-----------3-----------|-3-----------3-------3-------0---|---------3---3---3-----------3---|-----3-----------3---------------|
|-------------2-----------2-------|-----2---------------2-------1---|-------------1---1-----------1---|-----1-----------1---------------|
|---------------------------------|-----------------3-----------2---|-------------2---------------2---|-2---2---2---2---2---2---2-------|
|---------------------------------|-----------------------------2---|-------------2---------------2---|-2---2---2---2---2---2---2-------|
|---------------------------------|-------------------------0---0---|---------------------0---0---0---|---------------------------------|

part 11: (2:06-2:16)

|-5-----------------------0---1---|-----3---5---8-----------7-------|-5-----------------------0---1---|-----3-/-5---3-------------------|
|---------0---1-------3-------1---|-----1---3---6-----------6-------|---------0---1-------3-------1---|-----1-/-3---3-------6-----------|
|-----5\2---------------------2---|---------------------------------|-----2-----------------------2---|---------------------5-----------|
|---------------------------------|---------------------------------|---------------------------------|---------------------------------|
|-0-------------------------------|-----------------------------0---|---------------------------------|---------------------------------|
|---------0---3---3---3---0---1---|-1---1---0---0---0---0---0-------|---------0---3---3---3---0---1---|-1---1-------3---0---3---3---3---|

                                                                                      d   d   d         d       d   d  d       u  d             
|-0-------0-----------------------|-----0---1-------0---------------|-----------------0---0-----------|-0-------0------0-------0--------|
|-----------------1-------1-------|-3-------3-------3-------3-------|-1-------3-------1---3-----------|-3-------3------3-------3--------|
|-----0---------------------------|---------------------------------|-0-------0-------0---0-----------|-2---x---2---2--1-------1--x-----|
|---------------------------------|---------------------------------|-------------2---2---2-----------|-2---x---2---2--0-------0--x-----|
|-3-------2---2---0---0-----------|-------------------------2---2---|-3-------3-------3---3-----------|----------------2-------2--------|
|-------------------------0---0---|-1---0---2---2---3---3-----------|-------------------------0-------|---------------------------------|

part 12: (2:16-2:29)

|-5-----------------------0---1---|-----3-----4-----8-------7-------|-5-----------------------0---1---|-----3-/-5---3-------------------|
|-5-------0---1-------3-------1---|-----1-----------6-------6-------|---------0---1-------3-------1---|-----1-/-3---3-------6--------\--|
|-----------------------------2---|---------------------------------|-----2-----------------------2---|---------------------5--------\--|
|-7-------------------------------|---------------------------------|---------------------------------|---------------------------------|
|-----0---------------------------|---------------------------------|-0-------------------------------|---------------------------------|
|-------------3---3---3---0---1---|-1---1-----0-----0---0---0---0---|-------------3---3-----------1---|-1-----------3---0---3---3----0--|

                                                                                                                                    Thumb
|-0-------0---------------------|-----0---1-------0-------------|-----------------|-----------------|-----------------|-----------------|
|-----------------1-------1-----|-3-------3-------3-------3-----|-3-----3-----3---|---3---3-3-3-3---|-3-----3-----3---|---3-----3-------|
|-----0-------------------------|-------------------------------|-3-3-3-3-3-3-3-3-|-3-3---3-3-3-3---|-2-2---2-2---2-2-|-2-2-2-2-2-2-----|
|-------------------------------|-------------------------------|-2-2-2-2-2-2-2-2-|-2-2---2-2-2-2-x-|-1-1-x-1-1-x-1-1-|-1-1-1-1-1-1-----|
|-3-------2---2---0---0---------|-------------------------2---2-|-3-----3-----3---|---3---3-3-3-3---|-2-----2-----2---|---2-----2-------|
|-------------------------0---0-|-1---0---2---2---3---3---------|-----------------|-----------------|-----------------|-------------1/7-|

part 13: (2:29-2:44)

|---------------------------------|---------------------------------|---------------------------------|---------------------------------|
|---------------------------------|---------------------------------|---------------------------------|---------------------------------|
|---------------------------------|---------------------------------|---------------------------------|---------------------------------|
|---------------------------------|---------------------------------|---------------------------------|---------------------------------|
|-x-----------------------x-------|---------x---------------x-------|---------x---------------x-------|---------x---------------x-------|
|-7---7---7---7---7---7---7---7---|-7---7---7---7---7---7---7---7---|-7---7---7---7---7---7---7---7---|-7---7---7---7---7---7---7---7---|

|---------------------------------|---------------------------------|---------------------------------|---------------------------------|
|-9-------7-----------9-------7---|-------------9-------9---7-------|-7-------5-----------7-------5---|---------------------------------|
|-9---9---8-----------9---9---8---|-------------9---9---9---8-------|-7---7---6-----------7---7---6---|---------------------------------|
|-9---9---9-----------9---9---9---|-------------9---9---9---9-------|-7---7---7-----------7---7---7---|---------------------------------|
|-x-------x-----------x-------x---|-------------x-------x---x-------|-x-------x-----------x-------x---|---------x---------------x-------|
|-7-------7---7---7---7-------7---|-7---7---7---7-------7---7---7---|-7-------7---7---7---7-------7---|-7---7---7---7---7---7---7---7---|

                                                                                   d u d  d   d u d ... *keep the 7 on the E string here
                                                                                                   if you want to play it exactly like TE
|---------------------------------|---------------------------------|---------------------------------|---------------------------------|
|-9-------7-----------9-------7---|-------------9-------9---7-------|-7-------5-----------5-------5---|-----4-------5-------7-------7---|
|-9---9---8-----------9---9---8---|-------------9---9---9---8-------|-7---7---6----x-x-x--4---x-x-6---|-x-x-5---x-x-6---x-x-6---x-x-8---|
|-9---9---9-----------9---9---9---|-------------9---9---9---9-------|-7---7---7----x-x-x--6---x-x-7---|-x-x-6---x-x-7---x-x-8---x-x-9---|
|-x-------x-----------x-------x---|-------------x-------x---x-------|-x-------x-----------x-------x---|-----x-------x-------x-------x---|
|-7-------7---7---7---7-------7---|-7---7---7---7-------7---7---7---|-7-------7-----------*-----------|---------------------------------|

part 14: (2:44-2:54)

|---------------------------------|---------------------------------|---------------------------------|---------------------------------|
|-9-------7-----------9-------7---|-------------9---9---9---7-------|-7-------5-----------7-------5---|---------------------------------|
|-9---9---8-----------9---9---8---|-------------9---9---9---8-------|-7---7---6-----------7-------6---|---------------------------------|
|-9---9---9-----------9---9---9---|-------------9---9---9---9-------|-7---7---7-----------7---x---7---|---------------------------------|
|-x-------x-----------x-------x---|-------------x-----------x-------|-x-------x-----------x---x---x---|---------x---------------x-------|
|-7-------7---7---7---7-------7---|-7---7---7---7-----------7---7---|-7-------7---7---7---7-------7---|-7---7---7---7---7---7---7---7---|

                      d       d     d    u    d    u    d    u                              u                   u               u
|---------------------------------|---------------------------------|-0-------------0-------0---------|-0-------0-------0-------0-------|
|-9-------7-----------9-------7---|-7----7----7----7----7----7------|-3-------------3-------3---------|-1-------1-------0-------0-------|
|-9---9---8-----------9-------8---|-8----8----8----8----8----8------|-4-------------4-----------------|-2---------------0---------------|
|-9---9---9-----------9---x---9---|-9----9----9----9----9----9------|-5-------------5-----------------|-3---------------3---------------|
|-x-------x-----------x---x---x---|-x----x----x----x----x----x------|-0-------------0-----------x-----|-x---------------2---------------|
|-7-------7---7---7---7-------7---|-7----7----7----7----7----7---0--|-5-----5---5---5-----------5\----|-3-----------3---3-----------3---|

part 15: (2:54-3:03)

                                                                * TE plays G on low E, but I prefer the G-string. It's sexier.
                                                                                                        i          p  p      i  p  i
|-0-----------0-----------0-------|-----1-------1-------0-----------|-3p0-----------------------------|---------------------------------|
|-1-------------------1-------1---|-----1-------1-----------1-------|-----3--1--p0--1--p0-------------|----------------------------0----|
|-0---------------0---------------|-0---------------0-----------0*--|----------------------1--p0------|-3--p1--p0------------0--2-------|
|-2-------------------------------|---------------------------------|------------------------------3--|------------3--1--h2-------------|
|-3-------------------------------|---------------------------------|---------------------------------|---------------------------------|
|-3-------3-----------------------|---------------------------------|---------------------------------|---------------------------------|

|---------------------0-------1---|---------------------------------|---------------------------------|---------------------------------|
|-1-------1---3-------------------|---------3---------------1-------|---------1-----------1-----------|-1-----------1-----------0-------|
|-----0---------------------------|-----1-------x-------0-------0---|-----1-----------1-----------1---|---------1------------0----------|
|-2-----------------------2---3---|---------------------------------|-5-----------3-----------2-------|-----0---------------------------|
|-----------------3---------------|-----------------3---------------|---------------------------------|-----------------3---------------|
|---------------------------------|---------------------------------|---------------------------------|---------------------------------|

part 16: (3:03-3:20)

  furiously
  d
|-------------------3---4---6p4p3-|---4---------4-------------------|-----------5-------------7---|---------9----------------11---------|
|---------------4-----------------|---4---------4--------4----------|--4--------6------6------8---|--8-----10------10--------12---------|
|-----------3---------------------|---5---------5--------3----------|--5--------5------7------7---|--9------9------11--------11---------|
|-------5-------------------------|----------------------5----------|-----------------------------|-------------------------------------|
|-3/6-----------------------------|---------------------------------|-----------------------------|-------------------------------------|
|---------------------------------|---4---------4--------3---3---3--|-/4--4-4/5--5-5/6--6/7-7--7/-|-8-8-8/9--9-9/10--10-10/11---0---0---|

|-12------------------------------|----12----------12------12-------|-12------------------------------|-----12----------12------12------|
|--9------------------------------|-----9-----------9-------9-------|-10------------------------------|-----10----------10------10------|
|--9------------------------------|-----9---9---9---9---9---9---9---|-11------------------------------|-----11----------11--11--11--11--|
|--9------------------------------|-----9---9---9---9---9---9---9---|-10------------------------------|-----10----------10--10--10--10--|
|--x------------------------------|-----x-----------x-------x-------|--x-----------x-------x-------x--|------x-----------x-------x------|
|--0----------0-------0---0---0---|-0---0-----------0-------0-------|--0---0---0---0---0---0---0---0--|--0---0---0---0---0--------------|

                                                                                                            Neck bend (be careful not to
                                                                           d   u   d  u   d   u   d                   break the guitar!)
|-12------------------------------|-----12----------12------12------|-12--12--12--12------------------|-<5>-----------------------------|
|-11------------------------------|-----11----------11------11------|-12--12--12--12------------------|-<5>-----------------------------|
|-12------------------------------|-----12----------12--12--12--12--|-13--13--13--13------------------|-<5>-----------------------------|
|-11------------------------------|-----11----------11--11--11--11--|-12--12--13--12--0---0---0---0---|-<5>-----------------------------|
|--x-----------x-------x-------x--|------x-----------x-------x------|--x---x---x---x--0---0---0---0---|-<5>-----------------------------|
|--0---0---0---0---0---0---0---0--|--0---0---0---0---0--------------|-----------------0---0---0---0---|-<5>-----------------------------|

part 17: (3:20-3:31)

  furiously
  d
|---------------------------------|---------------------------------|---------------------------------|---------------------------------|
|-------------0--h1-------1---0---|---------------------------------|-1p0-----------------0-----------|---------------------------------|
|-0h2-----2-----------2-----------|---------0-----------0-----------|-----2--p0---2---------------2---|-----0--h2-------0--h2-------2---|
|-0h2---------------------0-------|-----0-----------0-----------2---|-------------------------2-------|-----0--h2-------0--h2-----------|
|-0---------------0---------------|---------------------------------|---------------------------------|-0-----------0-----------0-------|
|-0-------------------------------|-3-----------2-----------0-------|---------0-------0---------------|---------------------------------|

                                                                                                                             d d d d d
|---------------------------------|---------------------------------|---------------------------------|---------0---1-|-2--3---4---5-7--|
|-1--p0-------0-------1-------1p0-|---------------------------------|-0-----------------------0-------|-1---3---1---1-|-3--0---3---4-6--|
|---------------------------------|---------0-----------0-----------|-----2--p0---2-------------------|-2---0---0---2-|------x-4-x-5-7--|
|---------2-----------------------|-----0-----------0-----------2---|---------------------2-----------|---------------|------x-2-x-4-6--|
|-0---------------0---------------|---------------------------------|---------------------------------|-0---2---3-----|-----------------|
|-------------------------0-------|-3-----------2-----------0-------|---------0-------0---------------|-------------1-|-2--3------------|

part 18: (3:31-3:45)

|-8---7---5-----------5-------5---|---------------------------------|-8---7---5-----------------------|---------------------------------|
|-5---5---5---8-------5-------7---|---------------------------------|-5---5---5---8-------5-------7---|-----7-----------7---------------|
|-------------5-----------x-------|------------------2--------------|-------------5-------5---x---5---|-----5---x-------5---------------|
|-------------------------x-------|------------------2--------------|-------------------------x-------|---------x---7---------------7---|
|-0-------------------------------|-0---2---2/7--0------3---2---0---|---------------------------------|-0-------------------0---0-------|
|-----------------0---------------|---------------------------------|-----------------0---------------|---------------------------------|

                      u   tS                d u d
|-8---7---5-----------5---5-------|---5-----5-5-5---5---------------|--3---------------0--------------|-1---------------1---------------|
|-5---5---5---8-------5---7-------|---7-----7-7-7---7---------------|--0---------------1--------------|-1---------------3---------------|
|-------------5-------5---5-------|---5-----5-5-5---5---5---5---x---|--0---------------0--------------|-2---------------2---------------|
|-------------------------7-------|---7-----7-7-7---7---7---7---x---|--0---------------2--------------|-3---------------3---------------|
|-------------------------5-------|-----------------5---------------|--2---------------3--------------|-0---------------1---------------|
|-----------------0-------5-------|-----------------5---------------|--3------------------------------|---------------------------------|

|---------0---0---0---------------|---------------------0-----------|-0-------0-----------------------|---------------------------------|
|-3-------------------3-----------|-----------------3-------3-------|-0-------------------------------|---------------------------------|
|-2-----------------------2-------|---------2---2-------------------|-1-------------------------------|---------------------------------|
|-3---------------------------3---|---------------------------------|-2-----------2---2---2---2---2---|---------------------------------|
|-2-------------------------------|-2-------------------------------|-2-----------2---2---2---2---2---|---------------------------------|
|---------------------------------|-----------------------------0---|---------------------------------|-0---0--1/2-2/3-3/4-4/5-6/8-9/10-|

part 19: (3:45-3:55)

                                                                                          d   u   d     d       u   d   u   d
|---------------------------------|---------------------------------|---------------------------------|---------------------------------|
|-------12-----9-----10-------7---|-----8-------5-------6-------3---|-----4-------1-------3---3---4---|-5-------5---5---5---5-----------|
|-------11-----9------9-------7---|-----7-------5-------5-------3---|-----3-------1-------2---2---3---|-4-------4---4---4---4-----------|
|--------9-----9------7-------7---|-----5-------5-------3-------3---|-----1-------1-------0---0---0---|-0-------0---0---0---0-----------|
|---------------------------------|---------------------------------|---------------------0---0---0---|-0-------0---0---0---0-----------|
|-10/11-11-11-10--10--9---9---8---|-8---7---7---6---6---5---5---4---|-4---3---3---2---2---2---2---3---|-4-------4---4---4---4-4/7--7/11-|

                                                                                          d   u   d     d       u   d   u   d and mute
|---------------------------------|---------------------------------|---------------------------------|---------------------------------|
|-----12-------9-----10-------7---|-----8-------5-------6-------3---|-----4-------1-------3---3---4---|-5-------5---5---5---5-----------|
|-----11-------9------9-------7---|-----7-------5-------5-------3---|-----3-------1-------2---2---3---|-4-------4---4---4---4-----------|
|------9-------9------7-------7---|-----5-------5-------3-------3---|-----1-------1-------0---0---0---|-0-------0---0---0---0-----------|
|---------------------------------|---------------------------------|---------------------0---0---0---|-0-------0---0---0---0-----------|
|-11--11--11--10--10--9---9---8---|-8---7---7---6---6---5---5---4---|-4---3---3---2---2---2---2---3---|-4-------4---4---4---4-----------|

part 20: (3:55-4:08)

|----------------0---------|----------0---------------|----------------0---------|----------0---------------|----------------0----------|
|-------1------------------|-1-----------------1---2--|-------2------------------|-2-----------------2------|-------3-------------------|
|----------4--------4------|----4--------4------------|----------4--------4------|----4--------4------------|----------4--------4-------|
|----2--------2--------2---|-------2--------2---------|----2--------2--------2---|-------2--------2---------|----3--------3--------3----|
|-0------------------------|--------------------------|-0------------------------|--------------------------|-0-------------------------|
|--------------------------|--------------------------|--------------------------|--------------------------|---------------------------|

|----------0---------------|---------------0----------|----------0---------------|----------------0---------|----------0----------------|
|-3-----------------3------|------4-------------------|-4-----------------4------|-------3------------------|-3-----------------3-------|
|----4--------4--------4---|---------4--------4-------|----4--------4--------4---|----------4--------4------|----4--------4--------4----|
|-------3--------3---------|---4--------4--------4----|-------4--------4---------|----3--------3--------3---|-------3--------3----------|
|--------------------------|-0------------------------|--------------------------|-0------------------------|---------------------------|
|--------------------------|--------------------------|--------------------------|--------------------------|---------------------------|

part 21: (4:08-4:23)

|---------0---------------0-------|---------0---------------0-------|---------0---------------0-------|---------0---------------0-------|
|-2---------------2---------------|-2---------------2---------------|-3---------------3---------------|-3---------------3---------------|
|----4-------4-------4------4-----|----4-------4-------4------4-----|----4-------4-------4------4-----|----4-------4-------4------4-----|
|-------2-------2-------2------2--|-------2-------2-------2---------|-------3-------3-------3------3--|-------3------3--------3---------|
|-0-------------------------------|------------------------------0--|---------------------------------|------------------------------0--|
|---------------------------------|---------------------------------|---------------------------------|---------------------------------|

                                                                               m  i  p  m  i  p         tS                  d
|---------0---------------0-------|---------0---------------0-------|-------------------0-------------|-0-------------------------------|
|-4---------------4---------------|-4---------------4---------------|-3--------3-----------3----------|-3-------------------------------|
|----4-------4-------4------4-----|----4-------4-------4------4-----|----4--------4-----------4-------|-4-------------------------------|
|-------4-------4-------4------4--|-------4-------4-------4---------|-------3--------3----------------|-3-------------------------------|
|---------------------------------|------------------------------0--|---------------------------------|-0-------------------------------|
|---------------------------------|---------------------------------|---------------------------------|---------------------10\---------|

  tS    d    d       u     d u d        u   d       d     d     d
|-0----------3-------3---------1--|-----1-----------3----------------|--------------------------3-----|-----0-----------0---0-----------|
|-1----------0-------0---------1--|-----1-----------0----------------|-----1-----1-----1--1-----0-----|-----1-----------1---1-----------|
|-2----------0-------0-----x-x-2--|-----2---x-------0-----x-----x----|-----2-----2-----2--2-----0-----|-----2-----------2---2-----------|
|-2-----x----0-------0-----x-x-3--|-----3---x-------0-----x-----x----|-----2-----2-----2--2-----0-----|-----2-----------2---2-----------|
|-0-----x----2--------------------|-----------------2----------------|-----0-----0-----0--0-----0-----|-----0-----------0---0-----------|
|------------3--------------------|-----------------3----------------|--------------------------3-----|---------------------------------|

More of my work