Chilly Gonzales – Gogol

Gogol Tab

Time signature: 4/4, Tempo: 75 bpm
Tuning: Drop D (D A D G B E)

Originally written by Chilly Gonzales
Tab and guitar arrangement by Oddnejm

|-0h3p1p0----------------------1-|--------------------------------|
|---------2--3-----------------3-|----3---------------------------|
|------------2-----2-----2-----2-|----2-------2-------2-------2---|
|------------3-----3-----3-------|----3-------3-------3-------3---|
|--------------------------------|--------------------------------|
|---------0-----0-----0-----0----|-0------0-------0-------0-------|

|-0--1-----------4---5-----------|-10-11--------------10----------|
|----3-------3-------3-------3---|--------9---10--11--------------|
|----2-------2-------2-------2---|----------------12~-------------|
|--------------------------------|-10~--------------------11--12--|
|--------------------------------|--------------------------------|
|-0------0-------0-------0-------|--------------------------------|

|-0--------------------0h3p1p0---|--------------------------------|
|----6---------------------------|-2--3---------------------------|
|----7-----7-----7---------------|----2-------2-------2-------2---|
|----7-----7-----7---------------|----3-------3-------3-------3---|
|-5-----5-----5-----5------------|--------------------------------|
|--------------------------------|-0------0-------0-------0-------|

|-0--1-----------4---5-----------|-10-11--------------10----------|
|----3-------3-------3-------3---|--------9---10--11--------------|
|----2-------2-------2-------2---|----------------12~-------------|
|--------------------------------|-10~--------------------11--12--|
|--------------------------------|--------------------------------|
|-0------0-------0-------0-------|--------------------------------|

|-0--------------------0h3p1p0---|--------------------------------|
|----6---------------------------|-2--3---------------------------|
|----7-----7-----7---------------|----2-------2-------2-------2---|
|----7-----7-----7---------------|----3-------3-------3-------3---|
|-5-----5-----5-----5------------|--------------------------------|
|--------------------------------|-0------0-------0-------0-------|

|--9/10-----------9/10--9----10--|--------------------------------|
|-10/11----------10/11-10----11--|-7h8--------8-------8-------6h8-|
|------------0-------------------|-7h9--------9-------9-----------|
|--------------------------------|--------10-----10------10-------|
|--------10----------------------|--------------------------------|
|--------------------------------|--------------------------------|

|--------8-----------------------|---------------11---------------|
|--9/10--------------------------|----11----------8---------------|
|--------------------10--7----7--|----------------8---------------|
|------------10--12---8--6----6--|---------8h10---8---------------|
|-------------8------------------|--------------------------------|
|--------------------------------|-8------------------------------|

|----------------------------1---|--------------------------------|
|-2--3---------------3-------3---|----3---------------------------|
|-2--2---------------2-------2---|----2-------2-------2-------2---|
|-0--3---------------3-----------|----3-------3-------3-------3---|
|-0------------------------------|--------------------------------|
|----0-------------------0-------|-0------0-------0-------0-------|

|----------------4/5-------------|----9-10-11-----------10--------|
|-5/6----------------------------|---x--------8-9-10-11-----------|
|------------7---5/7---------7---|--x---------------------5-6-7-8-|
|-6/7--------7---------------7---|-x----------0-------0-----0-----|
|--------------------------------|--------------------------------|
|-0------0-------0-------0-------|--------------------------------|

|------------------------0h3p1p0-|--------------------------------|
|-5/6----------------------------|-2--3---------------------------|
|-----------7-------7------------|----2-------2-------2-------2---|
|-6/7-------7-------7------------|----3-------3-------3-------3---|
|--------------------------------|--------------------------------|
|-0-----0-------0------0---------|-0------0-------0-------0-------|

|----------------4/5-------------|----9-10-11-----------10--------|
|-5/6----------------------------|---x--------8-9-10-11-----------|
|------------7---5/7---------7---|--x---------------------5-6-7-8-|
|-6/7--------7---------------7---|-x----------0-------0-----0-----|
|--------------------------------|--------------------------------|
|-0------0-------0-------0-------|--------------------------------|

|------------------------0h3p1p0-|--------------------------------|
|-5/6----------------------------|-2--3---------------3---3-------|
|-----------7-------7------------|----2-------2-------2---2-------|
|-6/7-------7-------7------------|----3-------3-------3---3-------|
|--------------------------------|--------------------------------|
|-0-----0-------0------0---------|-0------0-------0-----------0---|

|--------------------------------|--------------------------------|
|-2/3--------------2/3--2----3---|---------5-------5-----6/8------|
|-2/3--------------2/3--2----3---|---------5-------5--------------|
|-------------5------------------|-4/5-----5-------5--------------|
|--------------------------------|------7------7---------3/7------|
|--------5-----------------------|--------------------------------|

|-5/8----------------------------|--------6---8---11--------------|
|----------------6---------------|----11--6---8----8--------------|
|--------5/7---------------------|-----------------8--------------|
|-3/7------------3-------3---3---|--------------------------------|
|--------3/5-------------5---5---|--------------------------------|
|--------------------------------|-8------------------------------|

|----------------------------1---|--------------------------------|
|-2--3---------------3-------3---|----3---------------------------|
|-2--2---------------2-------2---|----2-------2-------2-------2---|
|-0--3---------------3-----------|----3-------3-------3-------3---|
|-0------------------------------|--------------------------------|
|----0-------------------0-------|-0------0-------0-------0-------|

|-2--3--------------6h7---10p9---|-8------------------------------|
|-------------------8------------|----10--------------------------|
|----0--------0------------------|--------10------8/9-------9-----|
|-2------2-----------------------|------------10-------10--10-----|
|--------------------------------|--------------------------------|
|--------------------------------|-------------------------10-----|

|-2--3-------3---6---7---9---10--|-11-12--15--14--13--10--7---5---|
|--------------------------------|----------------------------5---|
|----0-------0---6---7---9---10--|-11-12--16--14--13--10--7---6---|
|-2------------------------------|--------------------------------|
|--------------------------------|--------------------------------|
|--------------------------------|--------------------------------|

|--9--10-------------------------|
|--8--10-------------------------|
|--9--10-------------------------|
|-----12-------------------------|
|--------------------------------|
|--------------------------------|
 

More of my work