Bruce Cockburn – Sunwheel Dance

Sunwheel Dance Tab

Original music by Bruce Cockburn
Tab and rearrangement by Oddnejm

Time signature: 4/4
Tuning: Open D (D A D F# A D), Capo 2
Tempo: 208 bpm (I exercise with 53 bpm or slower)

|---------------|----------------|
|---------------|----------------|
|---------------|----------------|
|----0-----0----|----0-----0-----|
|---------------|----------------|
|-0-----0-------|-0-----0--------|

|-----0---2p0-----|-4p0-----5----|-----0---2p0-----|-0------0-----|
|-0h2---0-------0-|-------0------|-0h2---0-----2p0-|---4b---------|
|-----------------|-----------5--|-----------------|--------------|
|-----0-------0---|-----0-----5--|-----0-------0---|------0---0-0-|
|-----------------|--------------|-----------------|--------------|
|-0-------0-------|-0-------5----|-0-------0-------|-0--------0---|

|-----0---2p0-----|-4p0-----5----|-4p3-4p0-2p0-----|-0------------|
|-0h2---0-------0-|-------0------|-------------2p0-|---2---p0-----|
|-----------------|-----------5--|-----------------|--------0-----|
|-----0-------0---|-----0-----5--|-----0-------0---|-----0----0-0-|
|-----------------|--------------|-----------------|--------------|
|-0-------0-------|-0-------5----|-0-------0-------|-0--------0---|

|------0---4p0-----|---5---4-----|-----0---4p0-----|---2---0------|
|--0h2-0---5p0-----|---7---5-----|-0h2-0---5p0-----|---4---0------|
|*-0h1---0-------0-|-------------|-0h1---0-------0-|---3---0-----*|
|*-----0-------0---|-----0---0---|-----0-------0---|---------0---*|
|------------------|-------------|-----------------|-----0--------|
|--0-------0-------|-0-----0-----|-0-------0-------|-0-----0------|

|-----0---2p0-----|-4p0-----5----|-----0---2p0-----|-0------0-----|
|-0h2---0-------0-|-------0------|-0h2---0-----2p0-|---4b---------|
|-----------------|-----------5--|-----------------|--------------|
|-----0-------0---|-----0-----5--|-----0-------0---|------0---0-0-|
|-----------------|--------------|-----------------|--------------|
|-0-------0-------|-0-------5----|-0-------0-------|-0--------0---|

|-----0---2p0-----|-4p0-----5----|---0-------------|--------------|
|-0h2---0-------0-|-------0------|-------4-2p0-----|--------------|
|-----------------|-----------5--|-------------1p0-|--------------|
|-----0-------0---|-----0-----5--|-----0-------0---|-2p0-4p2-0-0--|
|-----------------|--------------|-----------------|--------------|
|-0-------0-------|-0-------5----|-0-------0-------|-0-------0----|

|------0---4p0-----|---5---4-----|-----0---4p0-----|---2---0------|
|--0h2-0---5p0-----|---7---5-----|-0h2-0---5p0-----|---4---0------|
|*-0h1---0-------0-|-------------|-0h1---0-------0-|---3---0-----*|
|*-----0-------0---|-----0---0---|-----0-------0---|---------0---*|
|------------------|-------------|-----------------|-----0--------|
|--0-------0-------|-0-----0-----|-0-------0-------|-0-----0------|

|------0-----------|-------------|-----0-----------|--------------|
|--4h5---0-2p0-----|---2---0-----|-4h5---0-2p0-----|--------------|
|*-------------1p0-|---1---0-----|-------------1p0-|---1---0-----*|
|*-----0-------0---|-----0---0---|-----0-------0---|---2---0-0---*|
|------------------|-------------|-----------------|-----0--------|
|--0-------0-------|-0-----0-----|-0-------0-------|-0-----0------|

|--/12p11-9p7------|---12p11-9p7---|---12p11-9p7------|---5---4---|
|-------------9/12-|-------------9-|-------------9/12-|---7---5---|
|------------------|---------------|------------------|-----------|
|---0---------0----|---0---------0-|---0---------0----|-----0---0-|
|------------------|---------------|------------------|-----------|
|-0-------0--------|-0-------0-----|-0-------0--------|-0-----0---|

|-/12p11-9p7-----|--12p11-9p7----|--12p11-9p7-----|---2---0-------|
|-----------9/12-|-----------9---|-----------9/12-|---4---0-------|
|----------------|---------------|----------------|---3---0-------|
|--0--------0----|--0--------0---|--0--------0----|---------0-----|
|----------------|---------------|----------------|-----0---------|
|-0------0-------|-0------0------|-0------0-------|-0-----0-------|

|-----------------|---------------|----------------|--------------|
|-----------------|---------------|----------------|--------------|
|*----------------|--------1p0----|---------1p0----|-------------*|
|*----0-------0---|-----0-----2p0-|-----0------2p0-|---------0-0-*|
|-0h4---0---0---0-|---0---0-------|-0h4---0--------|-2p0-5p4------|
|---------0-------|-0-------------|----------------|--------------|

|--0---0h2-4---4h5-|-7---7-9------|-5h7---5----------|-------0----|
|------------------|--------------|-----9----7h9-5h7-|-----7------|
|*---0-------0-----|---0----------|------------------|-6h8-------*|
|*-----0-------0---|-----0---5----|-----5--------5---|-----5---0-*|
|------------------|--------------|------------------|------------|
|--0-------0-------|-0-----5------|-5--------5-------|-5-----0----|

|--/12p11-9p7------|---12p11-9p7---|---12p11-9p7------|---5---4---|
|-------------9/12-|-------------9-|-------------9/12-|---7---5---|
|------------------|---------------|------------------|-----------|
|---0---------0----|---0---------0-|---0---------0----|-----0---0-|
|------------------|---------------|------------------|-----------|
|-0-------0--------|-0-------0-----|-0-------0--------|-0-----0---|

|-/12p11-9p7-----|--12p11-9p7----|--12p11-9p7-----|---2---0-------|
|-----------9/12-|-----------9---|-----------9/12-|---4---0-------|
|----------------|---------------|----------------|---3---0-------|
|--0--------0----|--0--------0---|--0--------0----|---------0-----|
|----------------|---------------|----------------|-----0---------|
|-0------0-------|-0------0------|-0------0-------|-0-----0-------|

|----------------|----------------|----------------|--------------|
|----0-------0---|-----0----------|-----0----------|--------------|
|-0h1--0---0---0-|---0---0-1p0----|-0h1---0-1p0----|-0h1p0--------|
|--------0-------|-0----------2p0-|------------2p0-|-------2p0-0--|
|----------------|----------------|----------------|--------------|
|----------------|----------------|----------------|--------------|

|----------------|----------------|----------------|---------0-0--|
|----0-------0---|-----0----------|-----0----------|-0h2-5p4------|
|-0h1--0---0---0-|---0---0-1p0----|-0h1---0-1p0----|--------------|
|--------0-------|-0----------2p0-|------------2p0-|--------------|
|----------------|----------------|----------------|--------------|
|----------------|----------------|----------------|--------------|

|---0-----0-----0-|---0----0-----0-|---0----0-----0-|-------------|
|-----0-----0-----|-----0----0-----|-----0----0-----|-------------|
|*-8----------8---|-7----------7---|-5----------5---|-3p0--------*|
|*------9---------|------7---------|------5---------|----4p0-2-0-*|
|-----------------|----------------|----------------|-------------|
|-----------------|----------------|----------------|-------------|

|------0---4p0-----|---5---4-----|-----0---4p0-----|---2---0------|
|--0h2-0---5p0-----|---7---5-----|-0h2-0---5p0-----|---4---0------|
|*-0h1---0-------0-|-------------|-0h1---0-------0-|---3---0-----*|
|*-----0-------0---|-----0---0---|-----0-------0---|---------0---*|
|------------------|-------------|-----------------|-----0--------|
|--0-------0-------|-0-----0-----|-0-------0-------|-0-----0------|

|-----0---2p0-----|-4p0-----5----|-----0---2p0-----|-0------0-----|
|-0h2---0-------0-|-------0------|-0h2---0-----2p0-|---4b---------|
|-----------------|-----------5--|-----------------|--------------|
|-----0-------0---|-----0-----5--|-----0-------0---|------0---0-0-|
|-----------------|--------------|-----------------|--------------|
|-0-------0-------|-0-------5----|-0-------0-------|-0--------0---|

|-----0---2p0-----|-4p0-----5----|-4p3-4p0-2p0-----|-0------------|
|-0h2---0-------0-|-------0------|-------------2p0-|---2---p0-----|
|-----------------|-----------5--|-----------------|--------0-----|
|-----0-------0---|-----0-----5--|-----0-------0---|-----0----0-0-|
|-----------------|--------------|-----------------|--------------|
|-0-------0-------|-0-------5----|-0-------0-------|-0--------0---|

|------0---4p0-----|---5---4-----|-----0---4p0-----|---2---0------|
|--0h2-0---5p0-----|---7---5-----|-0h2-0---5p0-----|---4---0------|
|*-0h1---0-------0-|-------------|-0h1---0-------0-|---3---0-----*|
|*-----0-------0---|-----0---0---|-----0-------0---|---------0---*|
|------------------|-------------|-----------------|-----0--------|
|--0-------0-------|-0-----0-----|-0-------0-------|-0-----0------|

|---0-----0-----0-|---0----0-----0-|---0-----0-----0-|------------|
|-----0-----0-----|-----0----0-----|-----0-----0-----|------------|
|-5-----------5---|-3----------3---|-1-----------1---|-1p0-----0--|
|-------5---------|------4---------|-------2---------|----2p0---0-|
|-----------------|----------------|-----------------|------------|
|-----------------|----------------|-----------------|------------|

|---0-----0-----0-|---0-----0-----0-|-----------------|-----<12>--|
|-----0-----0-----|-----0-----0-----|-----------------|-----<12>--|
|-5-----------5---|-3-----------3---|-1p0-------------|-----<12>--|
|-------5---------|-------4---------|-----2p0---------|-0---------|
|-----------------|-----------------|---------2p0-5p4-|-----------|
|-----------------|-----------------|-----------------|---0-------|
 

More of my work