The Persuaders Theme – Jazz Style

This is my jazzy take on the cool theme from the 1971 TV Series The Persuaders.
The Persuaders Theme Tab

Guitar arrangement: Oddnejm
Original music: John Barry

Standard tuning
Time signature: 4/4

   Am                               Am 
|------0-------------------------|------0-------------------------|
|------------0-------------------|------------0-------------------|
|---------9-----9------9---------|---------9-----9------9-----9---|
|------------------10------------|------------------10------------|
|--12---------------------10-----|--12---------------------10-----|
|--------------------------------|--------------------------------|

   Am                               Am 
|------0-------------------------|------0-------------------------|
|------------0-------------------|------------0-------------------|
|---------9-----9------9---------|---------9-----9----------------|
|------------------10------------|------------------10------------|
|--12---------------------10-----|--12------------------12--10--9-|
|--------------------------------|--------------------------------|

   Em                                Em 
|-----0--------------------------|-----0--------------------------|
|-----------0--------------------|-----------0--------------------|
|--------9-----9-------9---------|--------9-----9------9-------9--|
|-----------------9--------------|-----------------9--------------|
|--7-----------------------9-----|---7---------------------9------|
|--------------------------------|--------------------------------|

   Em                               Em 
|-----0--------------------------|-----0--------------------------|
|-----------0--------------------|-----------0--------------------|
|--------9-----9-------9---------|--------9-----9-----------------|
|-----------------9--------------|-----------------9--------------|
|--7-----------------------9-----|--7------------------7---9---10-|
|--------------------------------|--------------------------------|

   Am                                Am 
|---0--0-------------------------|------0-------------------------|
|---0--------0-------------------|------------0-------------------|
|---9-----9-----9------9---------|---------9-----9------9------9--|
|--10--------------10------------|------------------10------------|
|--12---------------------10-----|---0---------------------10-----|
|--------------------------------|--------------------------------|

   Am                               Am 
|------0-------------------------|------0-------------------------|
|------------0-------------------|------------0-------------------|
|---------9-----9------9---------|---------9-----9----------------|
|------------------10------------|------------------10------------|
|--0----------------------10-----|--0-------------------12--10--9-|
|--------------------------------|--------------------------------|

   Em                               Em 
|--0--0--------------------------|-----0--------------------------|
|--0--------0--------------------|-----------0--------------------|
|--9-----9-----9-------9---------|--------9-----9------9------9---|
|--9--------------9--------------|-----------------9--------------|
|--7-----------------------9-----|-------------------------9------|
|--------------------------------|--0-----------------------------|

   Em                               Em 
|-----0--------------------------|-----0--------------------------|
|-----------0--------------------|-----------0--------------------|
|--------9-----9-------9---------|--------9-----9-----------------|
|-----------------9--------------|-----------------9--------------|
|--------------------------9-----|---------------------7----------|
|--0-----------------------------|--0----------------------8---7--|

Time signature: 3/4
   Am                               Am(add9) 
|--5---5---------------5---------|--7-------7--------7------------|
|--5---5---------------5---------|--5-------5--------5------------|
|--5---5---------------5---------|----------------5--------5------|
|--------------------------------|--------------------------------|
|--------------------------------|--------------------------------|
|--5---------------5--------5----|--7-----------------------------|

   Em                               Em(add9) 
|------3--------3----------------|--2-----2--------2--------------|
|------5--------5----------------|--5-----5--------5--------------|
|------4--------4----------------|--4-----4--------4--------------|
|--------------------------------|--------------------------------|
|--------------------------------|--------------------------------|
|--3--------3---------------3----|--2------------2----------------| 

   Am                               Am 
|------5-------------------------|--5------5----------------------|
|------5-------------------------|--5------5----------------------|
|------5-------------------------|--5------5----------------------|
|--------------------------------|--------------------------------|
|--------------------------------|--------------------------------|
|--5------------0------3---------|--5------5--------------0---5---|

   Em                               Em 
|--------------------------------|--------------------------------|
|--5p4-----------------4h5-------|--8p7---------------------------|
|--4------4------------4---------|--8-----8-----------------------|
|--5----------5------------------|------------9-------------------|
|--------------------------------|---------------------9-p10------|
|--0--------------0--------------|--0--------------0--------------|

    Am                                Am 
|------0-------------------------|--------------------------------|
|------0-------------------------|--/-10------8-------7-----------|
|------9---------------9---------|--------------------------------|
|------10-------------------10---|--------------------------------|
|-/-12-------------12------------|----0---------------------------|
|--------------------------------|--------------------------------|

   Em                               Bsus4 
|--------------------------------|--------------------------------|
|--8-----7-----------------------|------12--------12--------------|
|--9-----9------------9----------|------11--------11--------------|
|--9-----9-----------------------|------14--------14--------------|
|--7-----7-----------------------|--14-------14-------------------|
|--------------------------------|--------------------------0-----|

   Am                               Am(add9) 
|--------------------------------|-------8-----------8------------|
|--------------------------------|-------10----------10-----------|
|--------------------------------|-------9-----------9------------|
|--------------------------------|-------9-----------9------------|
|--------------------------------|--------------------------------|
|--7-------------5--p6-----p7----|--p8-----------8------------8---|

    Em                               Em(add9) 
|---------------5----------------|-----14--14---14--14------------|
|---------------5----------------|-----12--12---12--12------------|
|---------------5----------------|-----11--11---11--11------------|
|--------------------------------|--------------------------------|
|---7--------6----------7--------|---9----------------------------|
|--------------------------------|--------------------------------|

   Am                               Em(add9)
|-----5--------------5-----------|--7---7-------7-----------------|
|-----5--------------5-----------|--7---7-------7-----------------|
|-----5--------------5-----------|--9---9-------9-----------------|
|--------------------------------|--9--------9--------9-----------|
|--------------------------------|--------------------------------|
|--5-------------5-------5-------|--------------------------------|

   B          Bb         A           G  Em  
|--7----------6----------5-------|---3--0-------0-----------------|
|-----0-----------0---------0----|------0-------0-----------------|
|--------------------------------|-----------0--------0-----------|
|--------------------------------|--------------------------------|
|--------------------------------|--------------------------------|
|--7----------6----------5-------|---3--0-------------------------|

   Em/G                              Em/F#              Em(add9)
|--------------------------------|--------------------------------|
|-------8------------------------|-------8------------------7-----|
|-------9------------------------|-------9------------------9-----|
|-------9------------------------|-------9------------------9-----|
|--10----------------------10----|---9------------------9---------|
|--------------------------------|--------------------------------|

   Em                               Em(add9)
|--------------------------------|--------------------------------|
|------8-------------8-----------|--7--7--7-----------------------|
|------9-------------9-----------|--9--9--9-----------------------|
|------9-------------9-----------|--9--9--9-----------------------|
|--7-------------7------------7--|-----------7----9----10---------|
|--------------------------------|--------------------------------|

Time signature: 4/4
   Am                               Am 
|------0-------------------------|------0-------------------------|
|------------0-------------------|------------0-------------------|
|---------9-----9------9---------|---------9-----9------9-----9---|
|------------------10------------|------------------10------------|
|--12---------------------10-----|--12---------------------10-----|
|--------------------------------|--------------------------------|

   Am                               Am 
|------0-------------------------|------0-------------------------|
|------------0-------------------|------------0-------------------|
|---------9-----9------9---------|---------9-----9----------------|
|------------------10------------|------------------10------------|
|--12---------------------10-----|--12------------------12--10--9-|
|--------------------------------|--------------------------------|

   Em                               Em 
|-----0--------------------------|-----0--------------------------|
|-----------0--------------------|-----------0--------------------|
|--------9-----9-------9---------|--------9-----9------9-------9--|
|-----------------9--------------|-----------------9--------------|
|--7-----------------------9-----|--7----------------------9------|
|--------------------------------|--------------------------------|

   Em                               Em 
|-----0--------------------------|-----0--------------------------|
|-----------0--------------------|-----------0--------------------|
|--------9-----9-------9---------|--------9-----9-----------------|
|-----------------9--------------|-----------------9--------------|
|--7-----------------------9-----|--7------------------7----------|
|--------------------------------|-------------------------8--9---|

   Am                    G6         Am                    G#6 
|-----0--------------------------|-----0--------------------------|
|-----------0---------------3----|-----------0--------------4-----|
|--------9-----9------------4----|--------9-----9-----------5-----|
|-----------------10--------2----|-----------------10-------3-----|
|--0-----------------------------|--0-----------------------------|
|------------------------3-------|------------------------4-------|

Time signature: 3/4
   Am                                Am 
|--5--5--------------------------|-----5---------------------5----|
|--5--5--------------------------|-----5---------------------5----|
|--5--5--------------------------|-----5---------------------5----|
|--------------------------------|---7----------6------------5----|
|--------------------------------|--------------------------------|
|--5-------------5----7-----8----|--------------------------------|

   Em      Em(add9) 
|--------------------------------|-----7------------7-------------|
|--8-------7---------------------|-----7------------7-------------|
|--9-------9---------------------|-----9------------9-------------|
|--9-------9---------------------|-----9------------9-------------|
|--7-------7----------9-----7----|--------------------------------|
|--------------------------------|---7----------7--------------7--|

   Am                                Am 
|--7p5----------------------7----|---8------8---------8-----------|
|-------5-------------------5----|---5------5---------5-----------|
|----------5----------------5--5-|---5------------5----------5----|
|--------------------------------|--------------------------------|
|--------------------------------|--------------------------------|
|--5------------------------5----|---5----------------------------|

  Em                                Em(add9) 
|-/-12-------11------------12----|------14---14------14---14------|
|--------0-------------0-------0-|------12---12------12---12------|
|--------------------------------|------11---11------11---11------|
|--------------------------------|-------9----9-------9----9------|
|--------------------------------|--9-----------------------------|
|-/-12-------11------------12----|--------------------------------|

   Am                                 Em7 
|-----5--------------------------|------7-----------7-------------|
|-----5--------------------------|------7-----------7-------------|
|-----5--------------------------|------9-----------9-------------|
|--------------------------------|--/-9---------9-------------9---|
|--------------------------------|--------------------------------|
|--5----------5-----7------8-----|--------------------------------|

    Em                              Em 
|--------------------------------|------7-----7-------------------|
|--------------------------------|------8-----8-------------------|
|--------------------------------|------9-----9-------------------|
|---9------/-10-------------9----|--------------------------------|
|--------------------------------|--10----------------------------|
|--------------------------------|--------------------------------|

   Am7                               Am6 
|------5-------------------------|------5-------------------------|
|------5-------------------------|------5-------------------------|
|------5-------------------------|------5-------------------------|
|--5-------------------------5---|---4-------------------------4--|
|--------------------------------|--------------------------------|
|--------------------------------|--------------------------------|

   Em                                  Em(add9) 
|-----3-------------3------------|---------14------14-------------|
|-----5-------------5------------|---------12------12-------------|
|-----4-------------4------------|---------12------12-------------|
|--------------------------------|--------------------------------|
|--------------------------------|--------------------------------|
|--0------------0----------------|-----0--------0-----------------|

Time signature: 5/4
   E7#9                                   E9
|-----------------------------------------------------------------|
|-----------8----------------8------------7--------7------7-------|
|-----------7----------------7------------7--------7------7-------|
|-----------6----------------6------------6--------6------6-------|
|-----------------------7-------------7---------------------------|
|--0--------------------------------------------------------------|

   E7#9                                   E9
|-----------------------------------------------------------------|
|-----------8----------------8------------7-----------------------|
|-----------7----------------7------------7-----------------------|
|-----------6----------------6------------6-----------------------|
|--7--------------------7-------------7---------------------------|
|--------------------------------------------------0------3-------|

   E7#9                                   E9
|-----------------------------------------------------------------|
|-----------8----------------8------------7--------7------7-------|
|-----------7----------------7------------7--------7------7-------|
|-----------6----------------6------------6--------6------6-------|
|----------------------7--------------7---------------------------|
|--0--------------------------------------------------------------|

   E7#9                                   E9
|-----------------------------------------------------------------|
|-----------8----------------8------------7-----------------------|
|-----------7----------------7------------7-----------------------|
|-----------6----------------6------------6-----------------------|
|--7------------------7---------------7---------------------------|
|--------------------------------------------------6----5----3----|

   E9                                     Eb9
|-----------7----------------7------------6--------6------6-------|
|-----------7----------------7------------6--------6------6-------|
|-----------7----------------7------------6--------6------6-------|
|-----------6----------------6------------5--------5------5-------|
|-----------------------7-------------7---------------------------|
|--0--------------------------------------------------------------|

   E9                                     F9
|-----------7----------------7------------8---8------------8------|
|-----------7----------------7------------8---8------------8------|
|-----------7----------------7------------8---8------------8------|
|-----------6----------------6------------7---7------------7------|
|--7--------------------7-------------7----------------8----------|
|-----------------------------------------------------------------|

     E9                                   Eb9
|-----------7----------------7------------6--------6------6-------|
|-----------7----------------7------------6--------6------6-------|
|-----------7----------------7------------6--------6------6-------|
|-----------6----------------6------------5--------5------5-------|
|--/-7------------------7-------------7---------------------------|
|-----------------------------------------------------------------|

   E9                                     F9
|-----------7----------------7------------8--------8--------------|
|-----------7----------------7------------8--------8--------------|
|-----------7----------------7------------8--------8--------------|
|-----------6----------------6------------7--------7--------------|
|--7--------------------7-------------7---------------------------|
|-----------------------------------------------------------------|

       Esus4                          slow down ...
|----------7-------------7-------------7-----------7---------7----|
|---------10------------10------------10----------10--------10----|
|----------9-------------9-------------9-----------9---------9----|
|------9------------9-------------9------------9---------9--------|
|-----------------------------------------------------------------|
|-----------------------------------------------------------------|

Time signature: 4/4
                                         Am(add9) 
|----------------------------------------7------------------------|
|----------------------------------------5------------------------|
|----------------------------------------5------------------------|
|--------------7---5---4-----------------7------------------------|
|--------------------------7--------------------------------------|
|--5---7---8-------------------7----------------------------------|
 
   Am                                   Em(add9) 
|--5----------------5-------------------14---14---14--------------|
|--5----------------5-------------------12---12---12--------------|
|--5----------------5-------------------11---11---11--------------|
|--7--------------------------------------------------------------|
|------------------------6---7---9--------------------------------|
|--5-------7------8-----------------------------------------------|

                                         Em
|----------------------------------------7-------7---------------|
|----------------------------------------8-------8---------------|
|----------------------------------------9-------9---------------|
|--------------7-/--9--10--9-------------------------------------|
|------------------------------10--------------------------------|
|--5---7---8-----------------------------------------------------|

Time signature: free 
    Am              Em                 Em   Em(add9)...
|----------------------------------------------------------------|
|-------------------8------------------8----7----8----7----8---7-|
|-------------------9------------------9----9----9----9----9---9-|
|-------------------9------------------9----9----9----9----9---9-|
|-/-12-----10-----9--------10---9---7-----7----7----7---7----7---|
|----------------------------------------------------------------|

                        Em(add9)
|-----------------------2-----------------------------------------|
|--5p6------------------0-----------------------------------------|
|--------5--------------0-----------------------------------------|
|------------6----------2-----------------------------------------|
|----------------8------2-----------------------------------------|
|-----------------------------------------------------------------|

More of my work