Tuolumne flows on – an Eddie Vedder Cover

Tuolumne Flows On Tab

Tuning: standard
Capo on 2
Tempo: 110 bpm
Original music by Eddie Vedder
Tab and cover by Oddnejm
Vids from Videezy. Pics from Freepik and Freeimages.

   m             m
   p p i p m p i p p i ...
|------------------------------|-1-------1-----0-------0------|
|--1-------1-----3-------3-----|-----3-------3-----3-----3p1--|
|*-----0-------0-----0-------0-|---0-------0-----0-------0---*|
|*---2-------2-----2-------2---|-----------------------------*|
|--3-----3-------3-----3-------|-3-----3-------3-----3--------|
|------------------------------|------------------------------|

|------------------------------|-1-------1-----0-------0------|
|--1-------1-----3-------3-----|-----3-------3-----3-----3p1--|
|*-----2-------2-----2-------2-|---0-------0-----0-------0---*|
|*---2-------2-----2-------2---|-----------------------------*|
|--0-----0-------0-----0-------|-0-----0-------0-----0--------|
|------------------------------|------------------------------|

|------------------------------|-1-------1-----0-------0------|
|--1-------1-----3-------3-----|-----3-------3-----3-----3h1--|
|*-----2-------2-----2-------2-|---2-------2-----2-------2---*|
|*---3-------3-----3-------3---|-3-----3-------3-----3-------*|
|------------------------------|------------------------------|
|--1-----1-------1-----1-------|------------------------------|

|-----------------------------|-----------------------------|
|-1-------1-----3-------3-----|-1-------1-----3-------3-----|
|-----2-------2-----2-------2-|-----2-------2-----2-------2-|
|---0-------0-----0-------0---|---0-------0-----0-------0---|
|-----------------------------|-----------------------------|
|-2-----2-------2-----2-------|-2-----2-------2-----2-------|

|-----------------------------|-----------------------------|
|-3-------3-----1-------1-----|-3-------3-----1-----1-------|
|-----2-------2-----2-------2-|-----2-------2-----2---2-----|
|---3-------3-----3-------3---|---3-------3-----3-------3---|
|-----------------------------|-----------------------------|
|-1-----1-------1-----1-------|-1-----1-------1-----1-------|

|-----------------------------|-1-------1-----0-------0-----|
|-3-------3-----1-------1-----|-----3-------3-----3-----3p1-|
|-----0-------0-----0-------0-|---0-------0-----0-------0---|
|---2-------2-----2-------2---|-----------------------------|
|-3-----3-------3-----3-------|-3-----3-------3-----3-------|
|-----------------------------|-----------------------------|

|-----------------------------|-1-------1-----0-------0-----|
|-1-------1-----3-------3-----|-----3-------3-----3-----3p1-|
|-----0-------0-----0-------0-|---0-------0-----0-------0---|
|---2-------2-----2-------2---|-----------------------------|
|-3-----3-------3-----3-------|-3-----3-------3-----3-------|
|-----------------------------|-----------------------------|

|------------------------------|-1-------1-----0-------0------|
|--1-------1-----3-------3-----|-----3-------3-----3-----3p1--|
|*-----0-------0-----0-------0-|---0-------0-----0-------0---*|
|*---0-------0-----0-------0---|-----------------------------*|
|------------------------------|------------------------------|
|--3-----3-------3-----3-------|-3-----3-------3-----3--------|

|-----------------------------|-----------------------------|
|-1-------1-----3-------3-----|-1-------1-----3-------3-----|
|-----2-------2-----2-------2-|-----2-------2-----2-------2-|
|---0-------0-----0-------0---|---0-------0-----0-------0---|
|-----------------------------|-----------------------------|
|-2-----2-------2-----2-------|-2-----2-------2-----2-------|

|-----------------------------|-----------------------------|
|-3-------3-----1-------1-----|-3-------3-----1-----0h1-----|
|-----2-------2-----2-------2-|-----2-------2---------------|
|---3-------3-----3-------3---|---3-------3-----------------|
|-----------------------------|-----------------------------|
|-1-----1-------1-----1-------|-1-----1-------1-------------|

|------------------------------|-3-------3-----0-------0------|
|--1-------1-----3-------3-----|-----1-------1-----1-------1--|
|*-----0-------0-----0-------0-|---0-------0-----0-------0---*|
|*---2-------2-----2-------2---|-----------------------------*|
|--3-----3-------3-----3-------|-3-----3-------3-----3--------|
|------------------------------|------------------------------|

|------------------------------|-3-------3-----0-------0------|
|--1-------1-----3-------3-----|-----1-------1-----1-------1--|
|*-----2-------2-----2-------2-|---2-------2-----2-------2---*|
|*---2-------2-----2-------2---|-----------------------------*|
|--0-----0-------0-----3-------|-0-----0-------0-----0--------|
|------------------------------|------------------------------|

|------------------------------|-3-------3-----0-------0------|
|--1-------1-----3-------3-----|-----1-------1-----1-------1--|
|*-----2-------2-----2-------2-|---2-------2-----2-------2---*|
|*---3-------3-----3-------3---|-3-----3-------3-----3-------*|
|------------------------------|------------------------------|
|--1-----1-------1-----1-------|------------------------------|

|------------------------------|-1-------1-----0-------0------|
|--1-------1-----3-------3-----|-----3-------3-----3-----3p1--|
|*-----0-------0-----0-------0-|---0-------0-----0-------0---*|
|*---2-------2-----2-------2---|-----------------------------*|
|--3-----3-------3-----3-------|-3-----3-------3-----3--------|
|------------------------------|------------------------------|

|-----------------------------|-----------------------------|
|-1-------1-----3-------3-----|-1-------1-----3-------3-----|
|-----2-------2-----2-------2-|-----2-------2-----2-------2-|
|---0-------0-----0-------0---|---0-------0-----0-------0---|
|-----------------------------|-----------------------------|
|-2-----2-------2-----2-------|-2-----2-------2-----2-------|

|-----------------------------|-----------------------------|
|-3-------3-----1-------1-----|-3-----3-----3--1------------|
|-----2-------2-----2-------2-|-----2---2--------------/4---|
|---3-------3-----3-------3---|---3-------3-----------------|
|-----------------------------|-----------------------------|
|-1-----1-------1-----1-------|-1-----1--------1------------|
 

More of my work