Crazy

This is my stripped down version of the cool tune "Crazy" by Gnarls Barkley. Inspired by Daniela Andrade. Sound effects created in Adobe Audition - and by my rag doll kitten Sasta playing in the kitchen like - crazy(!)
Crazy Tab

Original music by Gnarls Barkley
Tab and cover by Oddnejm

Tuning: Eb Ab Db G# B Eb, Capo: 5

Fingerpicking pattern:
Am G
Eb|-----------------------------------------------------------|
B |--------0-------------0-------------0-------------0--------|
G#|----0-----0---0---0-----0---0---0-----0---0---0-----0---0--|
Db|------0-----0-------0-----0-------0-----0-------0-----0----|
Ab|--0-------------0------------------------------------------|
Eb|------------------------------3-------------3--------------|

F E
Eb|--------------------------------------------0--------------|
B |--------0-------------0-------------0-------------0--------|
G#|----0-----0---0---0-----0---0---0-----0-------0-----0------|
Db|------0-----0-------0-----0-------0-----0-------0-----0----|
Ab|-----------------------------------------------------------|
Eb|--1-------------1-------------0----------------------------|

Intro: Am G F E

Am
I remember when
G
I remember, I remember when I lost my mind
F
There was something so pleasant about that place
E
Even your emotions have an echo into so much space

And when you’re out there
Without care, yeah, I was out of touch
But it wasn’t because I didn’t know enough
I just knew too much

Does that make me crazy?
Does that make me crazy?
Does that make me crazy?
Possibly

Interlude 1:
Am G
Eb|-----------------------------------------------------------|
B |-------0-----0---0-0-0-0----------0---0---0-0-0-0----------|
G#|*------0-----2/3-3-3-2-0----------0---2/3-3-3-2-0----------|
Db|*---0---------------------------0--------------------------|
Ab|--0-------0------------------------------------------------|
Eb|------------------------------3-----3----------------------|

F E
Eb|-----------------------------------------------------------|
B |-------0-----0---0-0-0-0----------0---0-0---0--------------|
G#|-------0-----2/3-3-3-2-0----------0---2-2---2/3-----------*|
Db|----0---------------------------0-------------------------*|
Ab|-----------------------------------------------------------|
Eb|--1-------1-------------------0-----0-----0----------------|

Come on now, who do you
Who do you, who do you, who do you think you are?
Ha ha ha, bless your soul
You really think you’re in control?

I think you’re crazy
I think you’re crazy
And I think you’re crazy
Just like me

Interlude 2:
Am G
Eb|--1-p0---0---0-----------------3p1-1-0---0-----------------|
B |-------2---2---2-----------------------2-------------------|
G#|*----------------------------------------------------------|
Db|*----------------------------------------------------------|
Ab|--0------0---0---------------------------------------------|
Eb|-------------------------------3-----3---3-----------------|

F E
Eb|-5---5-3---3-----------------------------------------------|
B |---0-----0---0----------------0---0---0-0------------------|
G#|--------------------------------2-2/3-2-0-----------------*|
Db|------------------------------------------2---------------*|
Ab|-----------------------------------------------------------|
Eb|-1-----1---1------------------0---0-------0----------------|

Ever since I was little
Ever since I was little and it looked like fun
And it’s no coincidence I’ve come
And I can die when I’m done.

Maybe I’m crazy
Maybe you’re crazy
Maybe we’re crazy
Probably

Outro:
Am G
Eb|-----------------------------------------------------------|
B |-------0-----0---0-0-0-0----------0---0---0-0-0-0----------|
G#|-------0-----2/3-3-3-2-0----------0---2/3-3-3-2-0----------|
Db|----0---------------------------0--------------------------|
Ab|--0-------0------------------------------------------------|
Eb|------------------------------3-----3----------------------|

F E
Eb|-----------------------------------------------------------|
B |-------0-----0---0-0-0-0----------0---0-0---0--------------|
G#|-------0-----2/3-3-3-2-0----------0---2-2---2/3-----------*|
Db|----0---------------------------0-------------------------*|
Ab|-----------------------------------------------------------|
Eb|--1-------1-------------------0-----0-----0----------------|

Am G
Eb|-----------------------------------------------------------|
B |-------0-----0---0-0-0-0----------0---0---0-0-0-0----------|
G#|*------0-----2/3-3-3-2-0----------0---2/3-3-3-2-0----------|
Db|*---0---------------------------0--------------------------|
Ab|--0-------0------------------------------------------------|
Eb|------------------------------3-----3----------------------|

F E
Eb|-----------------------------------------------------------|
B |-------0-----0---0-0-0-0----------0---0-0---0--------------|
G#|-------0-----2/3-3-3-2-0----------0---2-2---2/7------------|
Db|----0---------------------------0--------------------------|
Ab|-----------------------------------------------------------|
Eb|--1-------1-------------------0-----0-----0----------------|

More of my work